Acordes de Guitarra » E »Edgar Lira » Perdóname (Tab)

Perdóname
Edgar Lira

Letras, Notas, Punteos, Tablaturas y Acordes de Guitarra (Tabs & Chords)

  • Letra y Acordes
      |    Dm     |    F    |    C    |    G    |
    e)|-----1s0---|---------|---------|---------|
    B)|---------3-|-----1---|-----1---|-----0---|
    G)|---2-------|---2---2-|---0---0-|---0---0-| X3
    D)|-0---------|-3-------|---------|---------|
    A)|-----------|---------|-3-------|---------|
    E)|-----------|---------|---------|-3-------|
    
    //Dm F C G//  F Fm/B C G
    
     (Se sigue haciendo el arpegio)
    Dm
        F    C G                  Dm
    Perdóname,  pensé que hacia bien
    F           C          G   Dm
    Pero me engaño el corazón
          F          C   G
    El camino que tome
                 Dm      F
    A ningún lado me llevo
    
  • Tablatura
      |    Dm     |    F    |    C    |    G    |
    e)|-----1s0---|---------|---------|---------|
    B)|---------3-|-----1---|-----1---|-----0---|
    G)|---2-------|---2---2-|---0---0-|---0---0-| X3
    D)|-0---------|-3-------|---------|---------|
    A)|-----------|---------|-3-------|---------|
    E)|-----------|---------|---------|-3-------|
    
    //Dm F C G//  F Fm/B C G
    
      |    Dm     |    F    |    C    |    G    |
    e)|-----1s0---|---------|---------|---------|
    B)|---------3-|-----1---|-----1---|-----0---|
    G)|---2-------|---2---2-|---0---0-|---0---0-|
    D)|-0---------|---------|---------|---------|
    A)|-----------|-3-------|-3-------|---------|
    E)|-----------|---------|---------|-3-------|
    
    (Se sigue haciendo el arpegio)
    Dm
    
  • +
    ¡Colabora con nosotros!
    Envíanos tu versión de esta canción

Letra de Perdóname
(Se sigue haciendo el arpegio)
Perdóname, pensé que hacia bien
Pero me engaño el corazón
El camino que tome
A ningún lado me llevo
Y ahora quiero regresar,
Y ahora quiero regresar
Perdóname, se que te fallé
No lo puedo evitar
Se que mucho ah pasado
Yo no puedo regresar el tiempo atrás,
Quisiera regresar el tiempo atrás
(Aquí acaba el arpegio)
Perdóname, más que pedir perdón
Quiero regresar contigo una vez más
Pues hoy puedo pedir perdón
Y esperar en ti, esperar en ti
Ayúdame, no quiero volver a ser igual
Cambiaré este corazón
Pues no quiero yo volver atrás jamás
No quiero volver atrás jamás
Y ahora no pue--do
Más que pedir perdón
Quiero regresar contigo una vez más
Pues hoy puedo pedir perdón
Y esperar en ti
Y ahora no pue--do
Más que pedir perdón
Quiero regresar contigo una vez más
Pues hoy puedo pedir perdón
Y esperar en ti
Y esperar en ti
Tonos no communes:
Fm/B



© LaCuerda.net · Aviso Legal · Privacidad
DINAMICO