Acordes de Guitarra » E »Edgar Lira » El Trén (Tab)

El Trén
Edgar Lira

  • Letra y Acordes
    Asus2 Dadd2 Asus2 Dadd2 Asus2
    
    e)|-12-12-12-10-10-9---9--9--10-9--|
    B)|-14-14-14-12-12-10--10-10-12-10-|
    G)|--------------------------------|
    D)|--------------------------------|
    A)|--------------------------------|
    E)|--------------------------------|
    
    Asus2                  Dadd2
     Estoy sentado en este tren,
    Asus2                    Dadd2            E
     Miro por la ventana los sueños que no pudieron ser.
    Asus2              Dadd2
     Traigo mi maleta aquí,
    Asus2            Dadd2              E
     En ella cargo todo lo que esta dentro de mí.
    
    Coro:
    
    
  • Tablatura
    ************************************
    Aqui les va el tab de esta cancion:
    ************************************
    
                              (tab1)
    Estoy sentado en este tren
    Miro por la ventana
                                  (tab2)
    los sueños que no pudieron ser
                         (tab1)
    Traigo mi maleta aqui
                                                (tab2)
    En ella cargo todo lo que esta dentro de mi
                             (tab2)
    Yo voy rumbo ala estacion
    
    (y asi continua toda la cancion hasta llegar a...)
    
    Y ya tome una desicion
    de no parar
    de no parar
    hasta el final
             (tab3)
    no parare
    
    
    TAB1:
    e|--9---9---9---|--7--7--7--|--5--5--5--|--7--|--5--|
    B|--10--10--10--|--9--9--9--|--7--7--7--|--9--|--7--|
    
    TAB2:
    e|--9---9--|--7--|--9--|--5--|
    B|--10--10-|--9--|--10-|--7--|
    
    TAB3:
    e|--9---9--|--7--7--|--5--5--|--4--4--|--2--2--|--0--0--|--2--2--|--4--4----4--4-|
    B|--10--10-|--9--9--|--7--7--|--5--5--|--3--3--|--2--2--|--3--3--|--5--5----5--5-|
    NOTA: Apenas se termine de requintear 
  • +
    ¡Colabora con nosotros!
    Envíanos tu versión de esta canción

Letra de El Trén
B)|-14-14-14-12-12-10--10-10-12-10-|
Estoy sentado en este tren,
Miro por la ventana los sueños que no pudieron ser.
Traigo mi maleta aquí,
En ella cargo todo lo que esta dentro de mí.
Yo voy rumbo a la estación,
A encontrar a mí destino,
Ya tome una decisión de no parar,
De no parar hasta el final.
Atrás deje solo un cajón,
Lleno de palabras que dijeron “Nunca llegaras”,
Y hoy sentado en este tren,
Yo miro adelante, yo se que pronto llegare.
Yo voy rumbo a la estación,
A encontrar a mí destino,
Ya tome una decisión de no parar,
De no parar hasta el final.
No parare,
Hasta el final,
Yo llegare
Donde tenga que llegar,
Y si al final no logro llegar,
Que no sea porque yo no lo intente
Tonos no comunes:



© LaCuerda.net · aviso legal · privacidad · contacto