Acordes de Guitarra » E »Eddie Woolsey » Dios de la creación (Tab)

Dios de la creación
Eddie Woolsey

Letras, Notas, Punteos, Tablaturas y Acordes de Guitarra (Tabs & Chords)

  • Letra y Acordes
    Intro: //SOL - MI// RE - DO - SOL
    
       SOL             MI       SOL              MI           RE
    Tú gobiernas, en autoridad, tu sentado en tu trono estás,
                            DO   RE  MI                         DO   RE
    Y nada se escapa de tu voluntad,   y nada se esconde a tu mira---da
    
       SOL          MI           SOL          MI            RE DO
    Dios de la creación, mi salvador a ti te doy mi adoración, Señor
       SOL         MI           SOL        MI           RE  DO
    Cielo tierra y mar te adorarán y toda lengua cantará     tu amor
    
       SOL             MI       SOL               MI           RE
    Tú gobiernas, en autoridad, tu sentado en tu trono estás,
                        DO   RE      MI                         DO   RE
    Y nada se escapa de tu voluntad,   y nada se esconde a tu mira---da
    
       SOL          MI           SOL          MI             RE DO
    Dios de la creación, mi salvador a ti te doy mi adoración,  Señor
       SOL         MI          SOL            MI       RE  DO
    
  • Tablatura
    D------------------------
    G-0---0-0-0---0---0------ (x4)
    B-3---3-3-3---3---3------
    e-2---3-3-3---2---0------
    
    Se toca cuatro veces y luego entran todos los instrumentos
    y se hace lo mismo con algo mas
    
       SOL        MI
    D------------------------
    G-0---0-0-0---0---0------ (x4)
    B-3---3-3-3---3---3------
    e-2---3-3-3---2---0------
       RE                            DO
    E-------------------------------------------3--
    A---------3-3-3-3---3-3-3-3---//3-3-3-3-----2--
    D---------2-2-2-2---0-0-0-0-----0-0-0-0-----0--
    G--0------0-0-0-0---0-0-0-0-----0-0-0-0-----0--
    B--2------2-2-2-2---3-3-3-3-----3-3-3-3-----3--
    e--3----------------2-2-2-2-----3-3-3-3//---3--
    
  • +
    ¡Colabora con nosotros!
    Envíanos tu versión de esta canción

Letra de Dios de la creación
Tú gobiernas, en autoridad, tu sentado en tu trono estás,
Dios de la creación, mi salvador a ti te doy mi adoración, Señor
Cielo tierra y mar te adorarán y toda lengua cantará tu amor
Tú gobiernas, en autoridad, tu sentado en tu trono estás,
Dios de la creación, mi salvador a ti te doy mi adoración, Señor
Cielo tierra y mar te adorarán y toda lengua cantará tu amor
Tú amor,
tú fidelidad,
tú bondad,
tú majestad
//Dios de la creación, mi salvador a ti te doy mi adoración, Señor
Cielo tierra y mar te adorarán y toda lengua cantará tu amor//



© LaCuerda.net · Aviso Legal · Privacidad