Acordes de Guitarra » D »Los Dynamite » Ready Ready (Tab)

Ready Ready
Los Dynamite

Letras, Acordes y Tabs para Guitarra, Bajo y Ukulele

  • Afinación estandar
    
    x -Palm Mute
    
    Intro    x1
    Riff 1   x4
    Riff 2   x2
    Riff 1   x2
    Riff 2   x6
    Riff 3   x5
    Riff 4   x1
    Riff 1   x4
    Riff 2   x2 solo guitarra 1
    Riff 2   x4 las dos guitarras
    Riff 3   x5
    Outro    x2 las dos partes
    
    Intro
    
    ---------------        ---------------
    ---------------        ---------------
    ---5-5-5-8-8---   x9   ---3-3-3-3-3---   x1
    ---5-5-5-8-8---        ---3-3-3-3-3---
    ---3-3-3-6-6---        ---5-5-5-5-5---
    ---------------        ---------------
    
    
    Riff 1
    
    
    Guitarra 1
    
    ---------------------------------------------
    ---------------------------------------------
    ---5-5-8-8--------------5-5-6-6-8-x-8-10-8---
    ---5-5-8-8-6-x-6-x-6----5-5-6-6-8-x-8-10-8---
    ---3-3-6-6-6-x-6-x-6----3-3-4-4-6-x-6-8--6---
    -----------4-x-4-x-4-------------------------
    
    Guitarra 2
    
    ----------------------------------------
    ----------------------------------------
    ----------------------------------------
    ----------------------------------------
    ---3-3-6-3----------------3-3-6-3-6-8---
    --------
  • ps......
    aki una rola de esta banda
    de po-k madre...
    q la neta esta bien xida,
    el acomodo es muy arriba, por
    el movimineto q usa en los dedos
    para q sea mas agil, pero igual se la convierten
    suena bien
    
    Intro (0:03)
    
    G|--------------------------------------------|
    D|--------------------------------------------|
    A|--------------------------------------------|(x8)
    E|--8-8--11--8/4-(o hasta donde alcanzes)-----|
    
    (0:25)
    G|------------------------|
    D|------------------------|
    A|-------6----------------| X6
    E|--8-8-----8-x-4--4-4-4--|
    
    (0:45)
    G|--------------------------------------------------|
    D|--------------------------------------------------|
    A|3333333333333333-6666666666666666-----------------|(x2)
    E|----------------------------------4444444444444444|
    
    (0:52)
    G|------------------------|
    D|------------------------|
    A|-------6----------------| X4
    E|--8-8-----8-x-4--4-4-4--|
    
    (1:06)
    G|--------------------------------------------------|
    D|-------------------------------------------------
  • +
    ¡Colabora con nosotros!
    Envíanos tu versión de esta canción



Video de Ready Ready
[]




[Ready Ready chords][Ready Ready cifra]
© LaCuerda.net · aviso legal · privacidad · es · en · pt · contacto