Acordes de Guitarra » D »Los Dynamite » Katatonic (Tab)

Katatonic
Los Dynamite

Letras, Acordes y Tabs para Guitarra, Bajo y Ukulele

  • Bueno esta cancion es una de mis primeras transcripciones
    esta facil espero les guste y a mis hermanos de la banda en la q toco
    (bolaños, dany, javi, miky).
    
    intro
    
    G------------------------------------------|
    D--------8-----------10-10-----------------|
    A------------------------------------------|
    E--6-6-6---6---8-8-8---------8----33333333-|
    
    esta es la base de la cancion
    
    G--------------------------------------------------|
    D--------8-----------10-10-------------------------|
    A--------------------------------------------------|
    E--6-6-6---6---8-8-8---------8----3-3-3-3-3-0-3-0-3|
    
    
    G------------------------------------------|
    D-----------------------8----------10-10---|
    A------------------------------------------|
    E-3-3-3-3-3-3-3---6-6-6---6--8-8-8-------3-|
    
    silencio
    
    G------------------------------------------|
    D------------------------------------------|
    A------------------------------------------|
    E-6666666666--101010-333333333333----------|
    
    
    G----------------------------------
  • +
    ¡Colabora con nosotros!
    Envíanos tu versión de esta canción



Video de Katatonic
[]




[Katatonic chords][Katatonic cifra]
© LaCuerda.net · aviso legal · privacidad · es · en · pt · contacto