Acordes de Guitarra » D »Los Dynamite » Frenzy (Tab)

Frenzy
Los Dynamite

Letras, Acordes y Tabs para Guitarra, Bajo y Ukulele

  • ps esta rola es frenzy muy sencilla pero pues tienes poner bien el ritmo
    
    intro
    entra guitarra sola despues ya entra el bajo
    
    G------------------------------------------|
    D------------------------------------------|
    A--------12-12-----------------------------| x10
    E--5-5-5-------1-1-1-1-6-6-----------------|
    
    depues viene un pequeño cambio antes del precoro que va un poco mas rapido
    
    G------------------------------------------|
    D------------------------------------------|
    A-------11-11-11-11------------------------| x2
    E--5-5-5-5----------1-1-1-1-6-6------------|
    
    G------------------------------------------|
    D------------------------------------------|
    A--------12-12-----------------------------| x2
    E--5-5-5-------1-1-1-1-6-6-----------------|
    
    precoro (just play be...)
    G-----------------------------------------------|
    D-----------------------------------------------|
    A------------1111111111-------------------------| x2
    E--555555555------------99999999999-6666666666--|
    
    coro (oh no no
  • +
    ¡Colabora con nosotros!
    Envíanos tu versión de esta canción



Video de Frenzy
[]




[Frenzy chords][Frenzy cifra]
© LaCuerda.net · aviso legal · privacidad · es · en · pt · contacto