Acordes de Guitarra » D »Divididos » Tengo (Tab)
  • Letra y Acordes
    B         E
    Tengo un mundo
        FA#  B
    De sensaciones
    E           FA#   B
    Un mundo de vibraciones
    E            FA#  A
    Que te puedo regalar…
    
    Tengo dulzura para brindarte
    Caricias para entregarte
    Si tú me quieres amar…
    
              RE
    Serán los días más felices
         SOL         LA
    Que puedas tú vivir,
         RE
    Con luz de mil matices
        SOL        FA#/E
    
  • Tab p/Bajo
    Intro
    G|-----------------------|-------|
    D|----9-7---9-7---7------|-7-----|
    A|--------9-----9---9----|---567-|
    E|-77-----------------77-|-------|
    
     |-----------------------|-------------|
     |----9-7---9-7---7------|-7-----7-----|
     |--------9-----9---9----|---567---567-|
     |-77-----------------77-|-------------|
    
     |--------------------------------------|
     |--------------------------------------|
     |--------------------------------------|
     |-2(x15)-2(x15)-0(x15)-44-55-6-666666--|
    
    Verso
    G|-----------------------------------------------------|x2
    D|--5-5----------5-5----------5-5----------------------|
    A|------777-999------777-999------777-999--------------|
    E|-7-7----------7-7----------7-7----------5-55-55-5555-|
    
    Coro
    G|---------------------------------------|x2
    D|-------------4-6-7-6-4-----------------|
    A|-------4-5-7-----------7-5-4-----------|
    E|-5-5-7-----------------------7--55--55-|
    
     |------------------|------------|
     |--------5-4-2-4h5-|------------|
     |
  • +
    ¡Colabora con nosotros!
    Envíanos tu versión de esta canción

Letra de Tengo
Tengo un mundo
De sensaciones
Un mundo de vibraciones
Que te puedo regalar…
Tengo dulzura para brindarte
Caricias para entregarte
Si tú me quieres amar…
Serán los días más felices
Que puedas tú vivir,
Con luz de mil matices
Que tengo para ti…
Tengo mil brazos para abrazarte
Mil bocas para besarte,
Mil sueños puesto en ti…
Tengo poemas de amor y rosas
Y cosas maravillosas
Y todo es para ti…
Serán los días más felices
Que puedas tú vivir,
Con luz de mil matices
Que tengo para ti…
Serán los días más felices
Que puedas tú vivir,
Con luz de mil matices
Que tengo para ti…
donde no aparecen los acordes
es porqe son los mismos que la anterior pasada
suertee !
Lautii !



© LaCuerda.net · aviso legal · privacidad · contacto