Acordes de Guitarra » D »Divididos » Luca (Tab)

Luca
Divididos

Letras, Acordes y Tabs para Guitarra, Bajo y Ukulele

  • E    F#7/11
    Luca
    como una canción
    que zumba en el viento
    del corazón
    
    Luca
    fuelle tano que
    respirando pampas
    se aporteño
    
    Luca... 
     B5
       Solitario amor
    con su ley 
           F#5 
    de ausencias
    (sin tocar)
    no, no te pongas azul
                  A5      B5    F#5
    
  • Intro:(empieza la guitarra hace 4 tiempos de 4 (4/4)
    en el cuarto entra la bata y en el quinto compás entra el bajo)
    G|----------------4h6-4-3-4-3----------|
    D|--4-----2--4-2-4------------4--------|
    A|-----4------------------------4------|
    E|-------------------------------------|
    
    G|-------------------4/11-11-11--10--9---------|
    D|-4-----2--4-2-(4)---------------------11(0)--| Nota 1: el (4) puede
    A|----4----------------------------------------| o no ser tocado para
    E|---------------------------------------------| llegar a tiempo
    al slide de 4/11 y (0) es para marcar que el slide es descendente.
    
    
    Verso 1:
        Luca     como una canción
    G|----------------4h6-4-3-4-3----------|
    D|--4-----2--4-2-4------------4--------|
    A|-----4------------------------4------|
    E|-------------------------------------|
    
       que zumba en el viento del corazón
    G|-------------------4/11-11-11--10--9---------|Idem Nota 1
    D|-4-----2--4-2-(4)---------------------11(0)--|
    A|----4----------------------------------
  • +
    ¡Colabora con nosotros!
    Envíanos tu versión de esta canción

Letra de Luca
Luca
como una canción
que zumba en el viento
del corazón
Luca
fuelle tano que
respirando pampas
se aporteño
Luca...
Solitario amor
con su ley
de ausencias
(sin tocar)
no, no te pongas azul
y ahora quien sirve el "vermú"
en tu subte línea "D"
de San Telmo a Chajari
De ojotas al bar
y del bar al cielo
todo sobre:F#5 E5 F#5 A5 F#5
no, no te pongas azul
no, no me pongas azul
De ojotas al bar
y del bar al suelo
Luca en el viento
en el viento.

En el viento,
en el viento.
no nos olvidemos de LUCA




[Luca chords][Luca cifra]
© LaCuerda.net · aviso legal · privacidad · es · en · pt · contacto
DINAMICO