Tablatura para Guitarra de Divididos: La flor azul
Conexión · Inscripción
Letras y Acordes
Pantalla Completa
Imprimir
Versión Texto
Añadir Favorito
Otras Versiones

Mostrar Diagramas
Desfile Automático
Manipular Acordes
Formato del Texto


La flor azul(TAB)

Divididos

calidad:
divi1032
AUTOR: Mario Arnedo Gallo
ALBUM: Amapola del 66 (2010)
Enviado por Migue
Hola!!! Che vi las otras trascripciones y estan un poco erradas
Aca se las dejo con el intro bien sencillo, lo que si, dejen el
F# sonando en la sexta cuerda, después es todo sencillo!!!


INTRO:
e---------2-----1-----0---------------2------1-----1-----------
B-----------3-----3-----3---------------3------3-----3---------
G-------------0-----0-----0---------------0------0-----0-------
D--------------------------------------------------------------
A-0h2h0----------------------0h2h0-----------------------------
E-------2--------------------------2---------------------------

e---------2-----1-----0---------------2------1-----1-----------
B-----------3-----3-----3---------------3------3-----3---------
G-------------0-----0-----0---------------0------0-----0-------
D--------------------------------------------------------------
A-0h2h0----------------------0h2h0-----------------------------
E-------2--------------------------2---------------------------

Ahora entra el violín de Peteco y se repite el intro

e---------2-----1-----0---------------2------1-----1-----------
B-----------3-----3-----3---------------3------3-----3---------
G-------------0-----0-----0---------------0------0-----0-------
D--------------------------------------------------------------
A-0h2h0----------------------0h2h0-----------------------------
E-------2--------------------------2---------------------------

e---------2-----1-----0---------------2------1-----1-----------
B-----------3-----3-----3---------------3------3-----3---------
G-------------0-----0-----0---------------0------0-----0-------
D--------------------------------------------------------------
A-0h2h0----------------------0h2h0-----------------------------
E-------2--------------------------2---------------------------

Em Bm F#7 Bm
Em Bm F#7 Bm VERSO:
Bm Que solo me voy quedando
Em Bm Mi viejo tunal
Em Bm Oyendo cantar al río
F#7 Bm Para el carnaval
Em Bm F#7 Bm
Em Bm F#7 Bm
Bm Me acompaña la esperanza
Em Bm En la soledad
Em Bm Cuando silva el huayramuyoj
F#7 Bm Por el salitral
Em Bm F#7 Bm
Em Bm F#7 Bm
Bm Árbol fuiste bien coposo
Em Bm Pobre corazón
Em Bm Árbol que quedo sin hojas
F#7 Bm Sin nidos ni amor
Bm Dile dile chacarera
Em Bm A esa flor azul
Em Bm Que de noche yo la busco
F#7 Bm Por la cruz del sur… Segunda: e---------2-----1-----0---------------2------1-----1----------- B-----------3-----3-----3---------------3------3-----3--------- G-------------0-----0-----0---------------0------0-----0------- D-------------------------------------------------------------- A-0h2h0----------------------0h2h0----------------------------- E-------2--------------------------2--------------------------- e---------2-----1-----0---------------2------1-----1----------- B-----------3-----3-----3---------------3------3-----3--------- G-------------0-----0-----0---------------0------0-----0------- D-------------------------------------------------------------- A-0h2h0----------------------0h2h0----------------------------- E-------2--------------------------2---------------------------
Em Bm F#7 Bm
Em Bm F#7 Bm
Bm Esa pena enamorada
Em Bm Pena sin cesar
Em Bm Buscando volverse copla
F#7 Bm Pa’ hacerme llorar
Em Bm F#7 Bm
Em Bm F#7 Bm
Bm Amalhaya con mi suerte
Em Bm Que a mi me ha tocao
Em Bm Cantar por cantar cantando
F#7 Bm Sin ser escuchao
Em Bm F#7 Bm
Em Bm F#7 Bm
Bm Cuando recuerdo sus ojos
Em Bm De dulce mirar
Em Bm Me acomodo con mi perro
F#7 Bm Solito a pitar
Bm Dile dile chacarera
Em Bm A esa flor azul
Em Bm Que de noche yo la busco
F#7 Bm Por la cruz del sur… Mario Arrendó Gallo y Antonio Rodríguez Villar Bueno, solo cabe aclarar que la (h) en la tablatura significa Martillar la cuerda. El resto es rasguear bien a lo santiago!!! JA j aja!!! Le agradezco de corazon a Diego, Ricardo y Catriel por este hermoso disco que por ser el primer disco en estudio propio, todos los santos en remera lo sentimos como propio. Le dedico esta trascripción a Don Romano, santiagueño de ley Que hace poco se fue de vacas con el Barba. Gracias por todas las enseñanzas y por ese amor a la musica. Cualquier duda o comentario. Migspider007@hotmail.com Abrazos!!! MIG
Este fichero es trabajo propio de su transcriptor y representa su interpretación personal de la canción. El material contenido en esta página es
para exclusivo uso privado, por lo que se prohibe su reproducción o retransmisión, así como su uso para fines comerciales.

© LaCuerda.net · Aviso Legal · Privacidad