Tablatura para Guitarra de Divididos: Boyar Nocturno
Conexión · Inscripción
Letras y Acordes
Pantalla Completa
Imprimir
Versión Texto
Añadir Favorito
Otras Versiones

Mostrar Diagramas
Desfile Automático
Manipular Acordes
Formato del Texto


Boyar Nocturno(TAB)

Divididos

calidad:
divi1132
AUTOR: Mollo , Arnedo
ALBUM: Amapola del 66 (2010)
Enviado por agus, basado en agus
Intro

e|-----------------------------------------------------------------
B|-----------------3-----------------------------------------------
G|------4/7-----------4-----------4/7-------------2h4h2------------
D|------4/7-----------4-----------4/7--------2h4---------4h2-------
A|--2----------2--------------2-----------2------------------------
E|-----------------------------------------------------------------


Jugar en B


Boyar nocturno, pincel de luna

Boyar sin rumbo, cognac, hay esta


e|-----------------------------------------------------------
B|-----------------------------------------------------------
G|----4/7-------4/9--------4/7------------2h4h2--------------
D|----4/7-------4/9--------4/7-------2h4---------4h2---------
A|-----------2---------2----------2--------------------------
E|-----------------------------------------------------------


Collar de espera, señal de luna

Canción nocturna, zagual hacia el baaaaaaaar



Tormenta de paloma

De una ciudad sin paz, sin fe

Sin voz, sin vos

e|--------------------
B|--------------------
G|--------------------
D|-----2---2---2------    x3
A|-----2---2---2------
E|-----0---0---0------

Lamento de cartón
De un mundo sin pared, por dios, por ley
Sin hoy, sin hoy

Versó 1

e|-----------------------------
B|-----------------------------
G|-----------------------------     x6
D|--------2---2---2------------
A|---0h2--2---2---2------------
E|--------0---0---0------------


Solo:


e|--------------------------------------------------------------
B|--------------------------------------------------------------
G|----------------------------------2--2h4-2---------4-4-4-4----
D|--------0-0h2-------------0--2h4------------4--2---4-4-4-4----
A|--0h2-2--------1----0-0h2-------------------------------------
E|--------------------------------------------------------------


e|---------------------------------------------------------------
B|---------------------------------------------------------------
G|---4-4-4/6-6-6-6-6-6-6/7-7-7/9-9-9/10----10-10----10-10h12-12--
D|---4-4-4/6-6-6-6-6-6-6/7-7-7/9-9-9/10--------------------------
A|---------------------------------------------------------------
E|---------------------------------------------------------------

e|----------------------------------------------------------------
B|----------------------------------------------------------------
G|---17-17--16-16--14-12--12h14-10---10-10--10-10h12-12-----------
D|----------------------------------------------------------------
A|----------------------------------------------------------------
E|----------------------------------------------------------------

e|----------------------------------------------------------------
B|----------------------------------------------------------------
G|-12-12-12/14-14-14-14/15-15-15/17-------------------------------
D|-------------------------------------------0------0h2-0---0-----
A|------------------------------------0-0h2------2--------2----2--
E|----------------------------------------------------------------

e|----------------------------------------------
B|----------------------------------------------
G|----------------------------------------------
D|--0h2-0----0-------0h2--2h3-2----0-2----------
A|---------2----2----------------2--------------
E|----------------------------------------------



Correr por todo, llegar por nada

Correr, más, más, más

Correr sin amor

Ya se la espera, no, no se

Podré al fin

Flotar de libertad

Tormenta de paloma…….


2do Solo:


e|------------------------------------------------------
B|------------------------------------------------------
G|------------------------------------------------------
D|------------------------------------------------------
A|--0h2~--4/5--5/7--7/9---9-7--7/8--8h10-8--10/12-------
E|------------------------------------------------------

e|--------------------------------------------------------
B|--------------------------------------------------------
G|--------------------------------------------------------
D|------------------------12-14-14/15--15/17-17/19--------
A|--0h2--4/5/7/9/12-12/14---------------------------------
E|--------------------------------------------------------

e|-----------------------------------------------------------------
B|-----------------------------------------------------------------
G|-----------------------------------------------------------------
D|----------------------------12--------------12-14-16-16/19-------
A|-7/9--9/12-12/14---14-12h14----14--14-12h14----------------------
E|-----------------------------------------------------------------

e|------------------------------------------------
B|------------------------------------------------
G|------------------------------------------------
D|-19/21--21-19--19/16-16-16/19-------------------
A|--------------------------------17ba ba-17ba ba-
E|------------------------------------------------

e|------------------------------------------------------
B|------------------------------------------------------
G|---------------------------19~~--19/17~---------------
D|-9-9h12-12/14--14/16-16/19----------------------------
A|------------------------------------------------------
E|------------------------------------------------------

e|--------------------------------------------------------
B|--------------------------------------------------------
G|--------------------------------------------------------
D|--------------------------------------------------------
A|-0h2~~-0h2~--0h2--4/5--5/7--7/9--9/12---9h10/12/14s-----
E|--------------------------------------------------------

e|--------------------------------------------------------
B|--------------------------------------------------------
G|--------------------------------------------------------
D|-4h5--5/7-7/9--9/12-12/14-14-14/16-16--14h16-16/19-19/21-
A|--------------------------------------------------------
E|--------------------------------------------------------


e|-------------------------------------------------------------
B|--------------17ba-15-17ba-15-17-15-15--s19/12-12--19/12-12--
G|-------------------------------------------------------------
D|-21-19-21-19-------------------------------------------------
A|-------------------------------------------------------------
E|-------------------------------------------------------------

e|---------------------17~~--17-17h19~~-17h19~~-17h19-19-19---
B|-10/12--15-17-18-20-----------------------------------------
G|------------------------------------------------------------
D|------------------------------------------------------------
A|------------------------------------------------------------
E|------------------------------------------------------------

e|-17h19-19/22--22/20-22/(25)-(25)/22-22/20-s20-----------------
B|--------------------------------------------------------------
G|--------------------------------------------------------------
D|--------------------------------------------------------------
A|--------------------------------------------------------------
E|--------------------------------------------------------------



Ahi esta todo, suena igual asi que aprovechenlo!!! ;)
Este fichero es trabajo propio de su transcriptor y representa su interpretación personal de la canción. El material contenido en esta página es
para exclusivo uso privado, por lo que se prohibe su reproducción o retransmisión, así como su uso para fines comerciales.

© LaCuerda.net · Aviso Legal · Privacidad