Tablatura para Guitarra de Divididos: Basta Fuerte
Conexión · Inscripción
Letras y Acordes
Pantalla Completa
Imprimir
Versión Texto
Añadir Favorito
Otras Versiones

Mostrar Diagramas
Desfile Automático
Manipular Acordes
Formato del Texto


Basta Fuerte(TAB)

Divididos

calidad:
divi0604
AUTOR: Divididos  corregir
ALBUM: desconocido
Enviado por Lucas
Hola, hoy vengo a dejar mi version de la intro de BASTA FUERTE, ya que
en la web no hay NI UNA SOLA TAB DEL TEMA -.-
a esta la saque yo para que, por lo menos, le sirva de guia a algun otro
mejor transcriptor y de un mejor laburo. bueno, se las dejo nomas...

INTRO PARTE 1
1 --------------------------------------------------
2 ---------------------------------12]14[12-10------
3 -10-12-10~--------------10-12-10~--------------12-
4 -10-12-10~--12-10-------10-12-10~-----------------
5 -----------------12-------------------------------
6 --------------------------------------------------

1 --------------------------------------------------
2 --------------------------------------------------
3 -10-12-10~----------------------------------------
4 -10-12-10~----10L12-10----12~-10~-----------------
5 -----------------------12--------12-10----10[3----
6 ---------------------------------------13---------

INTRO PARTE 2
1 --------------------------------------------------
2 ---------------------------------12]14[12-10------
3 -10-12-10~--------------10-12-10~--------------12-
4 -10-12-10~--12-10-------10-12-10~-----------------
5 -----------------12-------------------------------
6 --------------------------------------------------

1 --------------------------------------------------
2 --------------------------------------------------
3 -10-12-10~----------------------------------------
4 -10-12-10~-12-10----12~~~-------------------------
5 -----------------12-------------------------------
6 --------------------------------------------------

INTRO PARTE 3
1 ------------------------------------------------------------
2 ------------------------------------------------------------
3 -------10-12~~--14~~-12~~-10-12-10--------------------------
4 -10-12-----------------------------12-10-12~~~-10-----------
5 -------------------------------------------------12-10-12~--
6 ------------------------------------------------------------

INTRO PARTE 4
1 ------------------------------------------------------------
2 -----12]14~~------------------------------------------------
3 -12~~--------12~~-10-12-10----------------------------------
4 ---------------------------12-10-12~~~-10-------------------
5 ------------------------------------------12-10-12~---------
6 ------------------------------------------------------------

Bueno, eso fue hasta donde llegue a sacar en claro. Cuando saque el resto lo
subire, pero como no tengo wha-wha (que se usa en casi la mitad de la cancion)
es dificil que lo saque entero. Aguante La Aplanadora y Los Redondos y dejo mi
feibuc personal

www.facebook.com/poia2000

y mi pagina del rock nacional, denle MG quien quiera

www.facebook.com/industrialesrn

Un saludo enorme.
Este fichero es trabajo propio de su transcriptor y representa su interpretación personal de la canción. El material contenido en esta página es
para exclusivo uso privado, por lo que se prohibe su reproducción o retransmisión, así como su uso para fines comerciales.

© LaCuerda.net · Aviso Legal · Privacidad