Tablatura para Bajo de Divididos: Basta Fuerte
Conexión · Inscripción
Letras y Acordes
Pantalla Completa
Imprimir
Versión Texto
Añadir Favorito
Otras Versiones

Mostrar Diagramas
Desfile Automático
Formato del Texto


Basta Fuerte(BAJ)

Divididos

calidad:
divi0602
AUTOR: Divididos  corregir
ALBUM: desconocido
Enviado por Nicolás, basado en ariel
Basta Fuerte, por Divididos

Intro y versos:
G|------------------------------------------|
D|------------------------------------------|
A|-------------5-5---5--4--3--2-------------|
E|-2--3--4--5---------------------2-0p1p2---|
repetir las veces necesarias

Partes habladas (al comienzo de cada parte):
G|---|
D|---|
A|---|
E|-0-|

Solo:
G|-----99------99----99------7899-|
D|-------------------------79-----|
A|---77---77-7-----77-------------|
E|--------------------------------|repetir las veces
necesarias

Final:
G|-------------|
D|-------------|
A|-------------|
E|-0--3--0--/5-|repetir las veces necesarias
Este fichero es trabajo propio de su transcriptor y representa su interpretación personal de la canción. El material contenido en esta página es
para exclusivo uso privado, por lo que se prohibe su reproducción o retransmisión, así como su uso para fines comerciales.

© LaCuerda.net · Aviso Legal · Privacidad