Acordes de Guitarra » D »El Dipy » A mí que me importa (Tab)

A mí que me importa
El Dipy

Letras, Acordes y Tabs para Guitarra, Bajo y Ukulele

  •  C
    que no puedes vivir sin mi
              G
    que mi olvido te sabe a ayer
               Am                 F
    que me extrañas y sientas nostalgia
                     Dm
    cada vez que mi voz
                       F
    dentro de una cancion
           G
    te recuerda a mi amor
            C
    que te duele no estar aqui
                G
    que arrepentida estas de tu error
             Am                F
    que valdria la pena intentar
                         Dm
    que te duele estar sola
    
  • e ------------------------|
    B ------------------------|
    G -6-6-6-5-3-1-0-1-3/5----|
    D ------------------------|
    A ------------------------|
    E ------------------------|
    
    e ----------10-10-10-8-8-7-----------|
    B --------8----------------8---------|
    G ------9--------------------7/5-4---|
    D -5-10----------------------------5-|
    A -----------------------------------|
    E -----------------------------------|
    
    e -----------------------------------|
    B --------8-7-8/10-10-10/11----------|
    G -------7---------------------------|
    D -5-7-8-----------------------------|
    A -----------------------------------|
    E -----------------------------------|
    
  • e ---------------------------|
    B ---6-6-6-5-----------------|
    G -----------7-5-4-5-7-9-5---|
    D ---------------------------|
    A ---------------------------|
    E ---------------------------|
    
    e -----------8/10-10-10*8-8-8-8*7-------------|
    B ---------5----------------------8-----------|
    G -------5--------------------------7-5-4-----|
    D ---5-7----------------------------------5---|
    A --------------------------------------------|
    E --------------------------------------------|
    
    e -----------------------10-10-10-10-8-8-8-8-6-5--------|
    B ---------------8-10-11-------------------------6------|
    G ---------7-9-7-----------------------------------5----|
    D ---5-7-8----------------------------------------------|
    A ------------------------------------------------------|
    E ------------------------------------------------------|
    
  • +
    ¡Colabora con nosotros!
    Envíanos tu versión de esta canción

Letra de A mí que me importa
que no puedes vivir sin mi
que mi olvido te sabe a ayer
que me extrañas y sientas nostalgia
cada vez que mi voz
dentro de una cancion
te recuerda a mi amor
que te duele no estar aqui
que arrepentida estas de tu error
que valdria la pena intentar
que te duele estar sola
que el que ama perdona
que no puedes con la pena
y donde estabas cuando yo sufria
cuando me ahogaba la melancolía
yo tambien senti morirme
y ya no encuentras la salida
y a mi que me importa
cuando te fuiste yo tambien sufria
me desangraba a gotas
se escapo mi vida
y solo cure mis heridas
y a mi que me importa
no me interesa saber de tus derrotas
yo estoy mejor sin Ti
tu estas peor sin mi
y si no eres feliz
a mi que me importa
y donde estabas cuando yo sufria
cuando me ahogaba la melancolia
yo tambien senti morirme
y ya no encuentras la salida
y a mi que me importa
cuando te fuiste yo tambien sufria
me desangraba a gotas
se escapo mi vida
y solo cure mis heridas
y a mi que me importa
no me interesa saber de tus derrotas
yo estoy mejor sin ti
tu estas peor sin mi
y si no eres feliz
a mi que me importa.
HOLA A TODOS BUENO ESTE TEMA SE LO DEDICO A MI
NEGRA HERMOSA TODAVIA LA QUIERO MUCHO
SI QUIEREN EL PUNTEO ESCRIBANME A
WWW.METROFLOG.COM/BAE_YO
SALUDOS COMO SIEMPRE PARA UDS Y BUENO
SIN OLVIDARME DE SALUDAR AMI NORTE QUERIDO
SALUDOS PARA TODOS AHORA SI CHAU
YA SABEN SI QUIEREN EL PUNTEO SALUDOS




[A mí que me importa chords][A mí que me importa cifra]
© LaCuerda.net · aviso legal · privacidad · es · en · pt · contacto