Acordes de Guitarra » D »DeSaloon » Déjalo (Tab)

Déjalo
DeSaloon

  • Letra y Acordes
    A                  F#m            E           D
    Recuero con cariño las cosas que contigo aprendi
    A                    F#m          E               D
    me dices nuevamente, que vives el presente junto a el
    D                         E
    Y el fuego que nos quema, se llama amor del bueno
    F#m              E        D
    entonces yo me quemo y es por ti
    D
    me miras a los ojos
    E
    me dices no te quiero
    F#m        E          D
    tu sabes no te creo nada mas
             D/            E/
    sera por ti, sera por mi...
    
    A    E      F#m
    deja dejalo ya
    E
    
  • Tablatura
    e|----10-------12------------|
    B|-------10------12----------|
    G|----------11------13-------|
    D|---------------------------|
    A|---------------------------|
    E|---------------------------|
    
    Solo
    e|-----9------9----------------------------
    B|-------10-----10----12--9---9------------
    G|----------9------9--------9-----7--7b----
    D|-----------------------------------------
    A|-----------------------------------------
    E|-----------------------------------------
    
    e|---9-----10-9-----9----------------------------12-----|
    B|-----10------10-----10---12-9--9-----10---------------|
    G|--------9------9-------9------9----11---11------------|
    
    
    
  • Tab p/Bajo
    Verso (0:11)
    G|---------------------------------------------------|
    D|---------------------------------------------4-7---|
    A|-----------4-7-----------------------5-5---5-----5-|
    E|-3-5-5---5-----5---5-2-2---2-0-0---0---------------|
    
    Precoro (0:18)
    G|-------------------------------------------------------|
    D|-----------4------------6------------------------4-7---|
    A|-4-5-5-5-5----5-7-7-7-7---7---------------5-5--5-----5-|x2
    E|----------------------------2-2--2-0-0--0--------------|
    
    G|----------|
    D|----------|
    A|-4-5~--7~-|
    E|----------|
    
    Coro (0:40)
    G|----------------------------|
    D|----------------------------|
    A|---5--7-7-5-4----5--7-5-4---|
    E|-4-------------7----------7-|
    
    Verso x2
    
    Precoro
    
    Coro x2
    
    Puente (2:06)
    G|--------|
    D|--------|
    A|-5~--7~-|
    E|--------|
    
    G|---------------------------------------------------|
    D|---------------------------------------------4-7---|
    A|-----------4-7-----------------------5-5---5-----5-|x2
    E|-3-5-5---5-----5---5-2-2---2-0-0---0---------------|
    
    
  • +
    ¡Colabora con nosotros!
    Envíanos tu versión de esta canción

Letra de Déjalo
Recuero con cariño las cosas que contigo aprendi
me dices nuevamente, que vives el presente junto a el
Y el fuego que nos quema, se llama amor del bueno
entonces yo me quemo y es por ti
me miras a los ojos
me dices no te quiero
tu sabes no te creo nada mas
sera por ti, sera por mi...
deja dejalo ya
vuelve conmigo
dime si no te gusta
lo que te digo
deja dejalo ya
vete conmigo
dime si no te gusta
lo que te pido
el engaño es adictivo y sabe parecido al amor
tu me dices como siempre, quien de nada se arrepiente es mas feliz
y el fuego que nos quema, se llama amor del bueno
entonces yo me quemo una vez mas
me miras a los ojos
repites no te quiero
te abrazo fuertemente contra mi
sera por ti, sera por mi
deja dejalo ya
vuelve conmigo
dime si no te gusta
lo que te digo
deja dejalo ya
vete conmigo
dime si no te gusta
lo que te pido
es amor solo es amor
y el fuego que nos quema
se llama amor del bueno
que tal si nos quemamos de una vez
sera por ti, sera por mi
deja dejalo ya
vuelve conmigo
dime si no te gusta
lo que te digo
deja dejalo ya
vete conmigo
dime si no te gusta
lo que te pido
deja dejalo ya...
http://galeon.hispavista.com/cambiorockchileno/



© LaCuerda.net · aviso legal · privacidad · contacto