Acordes de Guitarra » D »Los de Adentro » Nubes negras (Tab)

Nubes negras
Los de Adentro

Letras, Acordes y Tabs para Guitarra, Bajo y Ukulele

  • INTRO: Em C G D
    
    Em   C      G    D
    Moriría por ti,
    Em          C           G            D
    por ti movería cielo y tierra si pudiera
    Em          C           G            D
    Cuanto daría por tenerte a mi lado,
    Em          C           G    D     C
    sin ti me sentiría acabado
    
    Em        C           G   D
    Ya la han visto por ahí,
    Em              C           G            D
    siempre tan distante e intocable, como siempre,
    Em        C           G            D
    eres el cielo el infierno de mi sueño
    C        Em            G    B
    Y te he soñado tantas veces
    
    
  • INTRO: Em C G D
    
    Em   C      G    D
    Moriría por ti,
    Em          C           G            D
    por ti movería cielo y tierra si pudiera
    Em          C           G            D
    Cuanto daría por tenerte a mi lado,
    Em          C           G    D     C
    sin ti me sentiría acabado
    
    Em        C           G   D
    Ya la han visto por ahí,
    Em              C           G            D
    siempre tan distante e intocable, como siempre,
    Em        C           G            D
    eres el cielo el infierno de mi sueño
    Em        C            G    D
    Y te he soñado tantas veces
    C        Em            G    B
    
  • E-3-----2---0-----0-------0----------------------------0-------3------
    B---0-----0---0-------0h1---0---3-----1---0-----------3---3------0----
    G-----0-------------0---------0---0-----0---0----2--2-------2------0--
    D-2---------------------------------0--------------------------2------
    A-----------------3------------------------------------------------
    E-------------------------------3----------------2-----------------
    
    E-2h3p2--0-------0------------------0--------0------2-----3-
    B----------0h1-----0----3-----0-1-3--------3---3-----3------
    G--------------------0----0h2------------2-------2-----2----
    D--------------------------------------0------------------2-
    A--------3--------------------------------------------------
    E-----------------------3-----------------------------------
    
    En esta parte entra el piano y la guitarra hace este arpegio
    
      Em            C             G             D9
    E-0-----0-----|-0-----0-----|-3-----3-----|-0-----0-----|
    B---0-----0---|---1-----1---|---3-----3---|---3-----3---|
    G-----0-----0-|-----0-----0-|-----0-----0-|-----2-----2-|
    
  • e-3-----2---0-----0-------0---------------------------0--------3----
    B---0-----0---0-------0h1---1---3-----0h1-3---------3---3s5-0----0--
    G-----0-------------0---------0---0---------0--2--2----------------0
    D-2---------------------------------0--------------------------2----
    A-----------------3--------------------------------------------------
    E-------------------------------3--------------2------------------
    
    e-2h3p2-0---------0----------------------0-------------0-----3------
    B------------0h1----1----3---------0-1-3--------0-1--3---3----------
    G----------0----------0----0---0h2------------2------------0--------
    D----------------------------0-------------------------------2------
    A-------3-----------------------------------------------------------
    E------------------------3--------------------2---------------------
    
    la guitarra hace este arpegio
    
      Em            C             G             D
    E-0-----0-----|-0-----0-----|-3-----3-----|-2-----2-----|
    B---0-----0---|---1-----1---|---3-----3---|---3-----3---|
    G-----0-----0-|-----0-----0-|-----0-----0-|-----2-----2-|
    
  • e||--3--------2--------0------|--0---------------0--------|
    B||-----0--------0--------0---|-----1-----0/1-0-----1-----|
    G||--------0----------------0-|--------0---------------0--|
    D||---------------------------|---------------------------|
    A||---------------------------|--3------------------------|
    E||--0------------------------|---------------------------|
    
    e||--------------------------|--------------0----------|
    B||--3--------1--------0-----|------------3---3--------|
    G||-----0--------0--------0--|--2------2--------2------|
    D||--------0-----------------|------0------------------|
    A||--------------------------|-------------------------|
    E||--3-----------------------|--0----------------------|
    
    e||--3-------------2/3/2-----|--0---------------0--------|
    B||-----0--------------------|-----1-----0/1/0-----1-----|
    G||--------0-----------------|--------0---------------0--|
    D||-----------2--------------|---------------------------|
    A||--------------------------|--3------------------------|
    E||--0-----------------------|---------------------------|
    
  • Nubes negras
    Aquí tengo el solo de la canción para uds no se si kedo bn pero ahí se
    hizo el intento…
     Am                 C          G
    E-7s8-8-8-7----7s8-7------------------------12-10---------------
    B-----------10-------8-------------------12-------12-10---------
    G----------------------9-------7-9-7--12------------------------
    D--------------------------7h9----------------------------------
    A---------------------------------------------------------------
    e---------------------------------------------------------------
      D
    E-----10-----8-----7-----5----3---
    B-5/7----3/5---3/5---3/5---1/3--0-
    G---------------------------------
    D---------------------------------
    A---------------------------------
    E---------------------------------
    
    Listo, pequeñito pero yo creo que quedo bn, despuès mando la
    canciòn completa que me parece que es la mejor de este gr
  • +
    ¡Colabora con nosotros!
    Envíanos tu versión de esta canción
  • Tutorial
    HD
    Como tocar NUBES NEGRAS Los de Adentro - en Guitarra
    3:14

Letra de Nubes negras
Moriría por ti,
por ti movería cielo y tierra si pudiera
Cuanto daría por tenerte a mi lado,
sin ti me sentiría acabado
Ya la han visto por ahí,
siempre tan distante e intocable, como siempre,
eres el cielo el infierno de mi sueño
Y te he soñado tantas veces
Nubes negras sobre mi corazón
Nubes negras sin ti todo se acabaría
Nubes negras sobre mi corazón
Nubes negras sin ti me moriría
No podría estar sin ella,
Me moriría del dolor,
No podría soportarlo,
cuando no siento su calor,
cuando no siento su calor ooooooooooh
Nubes negras sobre mi corazón
Nubes negras sin ti todo se acabaría
Nubes negras sobre mi corazón
Nubes negras sin ti me moriría
PUNTEO X
Uuuuuuuuu estoy cansado del juego
No lo puedo soportar
Nubes negras sobre mi corazón
Nubes negras sin ti todo se acabaría
Nubes negras sobre mi corazón
Nubes negras sin ti me moriría
Esta canción es muy, pero muy gloriosa, el nuevo album está muy teso
y pues como siempre digo, si no les gusta, pues que cagada sáquense otra
mejor, esta canción tiene una letra muy tierna, y pues va a dedicada a una
chik especial, ojalá algún día lo vea, bueno, suerte.
Att: Flako




[Nubes negras chords][Nubes negras cifra]
© LaCuerda.net · aviso legal · privacidad · es · en · pt · contacto