Tablatura para Guitarra de Los de Adentro: Nubes negras
Conexión · Inscripción
Letras y Acordes
Pantalla Completa
Imprimir
Versión Texto
Añadir Favorito
Otras Versiones

Mostrar Diagramas
Desfile Automático
Manipular Acordes
Formato del Texto


Nubes negras(TAB)

Los de Adentro

calidad:
aden0124
AUTOR: Jeo carvajal, eliuth martínez
ALBUM: Volver amar (2004)
Enviado por Jonathan
HOLA, ESTA ES MI TRANSCRIPCION, PARA MI ES LA
100% ACERTADA, ESPERO KE LES GUSTE

e||--3--------2--------0------|--0---------------0--------|
B||-----0--------0--------0---|-----1-----0/1-0-----1-----|
G||--------0----------------0-|--------0---------------0--|
D||---------------------------|---------------------------|
A||---------------------------|--3------------------------|
E||--0------------------------|---------------------------|

e||--------------------------|--------------0----------|
B||--3--------1--------0-----|------------3---3--------|
G||-----0--------0--------0--|--2------2--------2------|
D||--------0-----------------|------0------------------|
A||--------------------------|-------------------------|
E||--3-----------------------|--0----------------------|

e||--3-------------2/3/2-----|--0---------------0--------|
B||-----0--------------------|-----1-----0/1/0-----1-----|
G||--------0-----------------|--------0---------------0--|
D||-----------2--------------|---------------------------|
A||--------------------------|--3------------------------|
E||--0-----------------------|---------------------------|

e||------------------------0--|--------------0------2----|
B||--3------------0--1--3-----|------1---3---------------|
G||-----0-----0/2-------------|--2-----------------------|
D||--------0------------------|--------------------------|
A||---------------------------|--------------------------|
E||--3--------3---------------|--2-----------------------|

Em C G D Moriría por ti,
Em C G D por ti movería cielo y tierra si pudiera
Em C G D Cuanto daría por tenerte a mi lado,
Em C G D sin ti me sentiría acabado e||--0--------------------------------| B||--1--------------------------------| G||--0--------------------------------| D||--2--------------------------------| A||--3--------------------2--3--2--0--| E||----------0------------------------|
Em C G D Ya la han visto por ahí,
Em C G D siempre tan distante e intocable, como siempre,
Em C G D eres el cielo el infierno de mi sueño
Am7 C G B Y te he soñado tantas veces CORO
Em C G D Nubes negras sobre mi corazón
Em C G D Nubes negras sin ti todo se acabaría
Em C G D Nubes negras sobre mi corazón
Em C G D Nubes negras sin ti me moriría e||--0---| B||--1---| G||--0---| D||--2---| A||--3---| E||------|
Em C G D No podría estar sin ella, G|---------0/2---2/4----2---0----| D|--0--4-----------------------2-|
Em C G D Me moriría del dolor,
Em C G D No podría soportarlo, e|-10/12--12--12--12--10---7---5----| B|-10/12--12--12--12--10---7---5----| G|-10/12--12--12--12--10---7---5----|
Em C G D cuando no siento su calor,
Am7 C G B cuando no siento su calor
Em C G D Nubes negras sobre mi corazón
Em C G D Nubes negras sin ti todo se acabaría
Em C G D Nubes negras sobre mi corazón
Em C G D Nubes negras sin ti me moriría e|---5---8/9-9-9-8------8-7--------------------------12--10--| B|--5---------------10--------8-5-----------------12---------| G|-5---------------------------------------------------------| D|---------------------------------9--12--14--12-------------| e|---------------------10----8-----7------5-----3------| B|-----12--10------------------------------------------| G|-11-------------9/11-----9-----7------5-----4--------| D|-----------------------------------------------------|
C G Am Uuuuuuuuu estoy cansado del juego
C No lo puedo soportaaaaaarrrrrrr (COMPLEMENTO)
Em Me pongo a llorar por dentro
C G D y miento hasta que solo encuentro el final
Em y al despertar del sueño
C G D siento miedo, cuando se que no estas
Em C G D Nubes negras sobre mi corazón
Em C G D Nubes negras sin ti todo se acabaría
Em C G D Nubes negras sobre mi corazón
Em C G D C Nubes negras sin ti me moriría
Este fichero es trabajo propio de su transcriptor y representa su interpretación personal de la canción. El material contenido en esta página es
para exclusivo uso privado, por lo que se prohibe su reproducción o retransmisión, así como su uso para fines comerciales.

© LaCuerda.net · Aviso Legal · Privacidad