Acordes de Guitarra » D »David de Maria » Precisamente ahora (Tab)

Precisamente ahora
David de Maria

  • Letra y Acordes
    e---------2-------------2-------------2---------------2-------
    B-----0-------------0-------------0-----0-----------0---0-----
    G---3---3---------3---3---------3---3-----3-------3-------3---
    D---------------1-------------------------------1-----------1-
    A-------------------------------------------------------------
    E-0---------------------------0-------------------------------
    
    
    
    
    MI                                RE# 
    Precisamente ahora que te he imaginado y en mi caminar
    MI                               RE# 
    Precisamente ahora queda algo pendiente
    MI                             RE# 
    Precisamente ahora que cada mirada puedo recordar
            MI                 RE# 
    Te haces dueeeña de... mi mente
    
    MI                              RE# 
    
  • Letra y Acordes
          Bm                                     A
    Precisamente ahora que te he imaginado y en mi caminar,
          G                            A
    Precisamente ahora queda algo pendiente.
           Bm                                  A
    Precisamente ahora que cada mirada puedo recordar,
                   G    Bm       A
    Que te haces dueña de mi mente.
        Bm                                      A
    Precisamente ahora que el levante seca la ropa mojá,
        G                               A
    Precisamente ahora mira, ya no llueve.
      Bm                                         A
    Precisamente ahora pienso que tuvimos niña que esperarnos,
          G    Bm           A
    Antes de tentar la suerte... no,no,no....
    
    <>
    Bm              (parada)        G
    No me llores mas, preciosa mía
    
  • Letra y Acordes
    LAm                                               MI
    Precisamente ahora que te he imaginado y en mi caminar
    LAm                                 MI
    Precisamente ahora queda algo pendiente
    LAm                            MI              SOL
    Precisamente ahora que cada mirada puedo recordar
    REm                      MI
    Te haces dueña de mi mente
    
    LAm                                             MI
    Precisamente ahora que levanté seca la ropa mojaa
    LAm                               MI
    Precisamente ahora mira, ya no llueve
    LAm                                 MI                   SOL
    Precisamente ahora pienso que tuvimos, niña, que esperarnos
    REm                     MI
    Antes de tentar la suerte
    (estribillo
    LAm                         REm
    No me llores más preciosa mía
    
  • Letra y Acordes
    E|--------------2-|--------------2-|--------------2-------|--------2------|
    B|--------0-------|--------0-------|--------0--------0----|------0---0----|
    G|--3--------3----|---3-------3----|--3--------3--------3-|----3------3---|
    D|-----2----------|1-----1---------|-----2----------------|1------------1-|
    A|----------------|----------------|----------------------|---------------|
    E|0---------------|----------------|0---------------------|---------------|
    
    
      MI/11                      RE#m/13-
    Precisamente ahora que te he imaginado y en mi caminar,
      MI/11                      RE#m/13-
    Precisamente ahora queda algo pendiente.
      MI/11                      RE#m/13-
    Precisamente ahora que cada mirada puedo recordar,
               DO#m7      RE#m/13-  DO#m7 RE#m7
    Te haces dueña de mi mente.
    
      MI/11      MIsus2/11     RE#m/13-  Re#m7/Mi
    Precisamente ahora que el levante seca la ropa mojá,
      MI/11      MIsus2/11     RE#m/13-  Re#m7/Mi
    
  • Tablatura
    E * =   E---0-------
            B---0-------
            G---4-------
            D---2-------
            A---2-------
            E---0-------
    
    F# * = E---2------
           B---2-------
           G---3-------
           D---2-------
           A---4-------
           E---4-------
    
    B * =   E---2-------
            B---4-------
            G---4-------
            D---2-------
            A---2-------
            E---2-------
    
  • Tablatura
    E||------------|
    B||------------|
    G||---------0--|   B/#
    D||---------0--|
    A||--0---------|
    E||------------|
    
    
         1      4
    E||------------|
    B||------------|
    G||---------0--|   B/*#
    D||---------0--|
    A||--0---------|
    E||------------|
    
    
    
    
    PUNTEO INICIAL
    
  • +
    ¡Colabora con nosotros!
    Envíanos tu versión de esta canción

Letra de Precisamente ahora
Precisamente ahora que te he imaginado y en mi caminar
Precisamente ahora queda algo pendiente
Precisamente ahora que cada mirada puedo recordar
Te haces dueeeña de... mi mente
Precisamente ahora que levanté seca la ropa mojada
Precisamente ahora mira, ya no llueve
Precisamente ahora pienso que tuvimos, niña, que esperarnos
Antes de tentar... la suerte, no, no, nooo...
ESTRIBILLO
No me llores más preciosa mía
Tu no me llores mas, que enciendes mi pena.
No me llores más preciosa mía
Tu no me llores mas, que el tiempo se agota
Y entre lágrimas rotas por la soledad
Que se cuela en nuestras vidas
sin llamar... sin llamar... precisamente ahora
Doy vueltas por tu barrio casi todos los días sin desayunar
Me encuentro a tu familia y nunca se detienen a saludarme
Yo busco entre la gente la cara más bonita que se pueda imaginar
Por quererme sin tenerme, no, no, nooo...
(estribillo)
no habrá rincones para fugas , ni habrá en tu noche oscuridad
No habrá reflejos de amargura , juntitos volveremos a soñar.
No me llores más, no, no, nooo...
No me llores más preciosa mía
Tu no me llores mas, que el tiempo se agota
Y entre lágrimas rotas por la soledad
Que se cuela en nuestras vidas
Sin llamar... precisamente ahora... precisamente ahora.
bueno espero que les haya gustado, a mi me parecio que
quedo bien.



© LaCuerda.net · aviso legal · privacidad · contacto