Acordes de Guitarra » D »Danza Invisible » Sin aliento (Tab)

Sin aliento
Danza Invisible

Letras, Acordes y Tabs para Guitarra, Bajo y Ukulele

  • Intro: D Bm D Em (x2)
    
    D                       Bm
    Calla y que el secreto nunca
                       D
    salga de nuestros labios
                 Em
    de nuestros labios
    D              
    Mordiendo la manzana
    Bm
    sellamos este pacto 
        D
    es magico
              Em
    es lo mas intimo
    D                         Bm
    Y te preguntas por que doy 
                           G     A  
    tantas vueltas, soy un poseso
    
  • INTRO: Bm Bm D Em (x2)
    
    Bm
    Calla y que el secreto nunca
                       D
    salga de nuestros labios
                 Em
    de nuestros labios
    Bm
    Mordiendo la manzana
    
    sellamos este pacto
        D
    es mágico
              Em
    es lo mas íntimo
    Bm
    Y te preguntas por qué doy
                           G     A
    tantas vueltas, soy un poseso
    
  •    D           Bm            D        Em
    e|-2-0-0-------2-0-0-------2/10101010-1212d-|
    B|-3-----3-0-3-3-----3-0-3---10101010-12----|  2x
    
    Calla y que el secreto
                   nunca salga de nuestros
                              LAbios
                                  de nuestros labios
       D           Bm          D           Em
    e|-2-0-0-------2-0-0-------2/10101010-7-|
    B|-3-----3-0-3-3-----3-0-3---10101010-8-|
    G|------------------------------------9-|
    
    Mordiendo la manzana
                   sellamos este pacto
                              es mágico
                                  es lo más íntimo
       D           Bm          D           Em
    e|-2-0-0-------2-0-0-------2-3-2-0-2-2-3-2-0-2-|
    B|-3-----3-0-3-3-----3-0-3-3-3-3-3-3-3-3-3-3-3-|
    
  • INTRO:
    
    G---------------------------------------------9--------------
    D--0-2-0---0-2-0--0-2-0---0-2-0--------------9---------------
    A-2------22------2------22------5---5---55--7---------------- x2
    E------------------------------------------------------------
    
    CANTO:
    
    G------------------------------------------------------------
    D--0-2-0---0-2-0--0-2-0---0-2-0------------------------------
    A-2------22------2------22-------5----7---------------------- x2
    E------------------------------------------------------------
    
    G------------------------------------------9------------9----
    D--0-2-0---0-2-0--0-2-0---0-2-0-----------9------------9-----
    A-2------22------2------22---------------7------------7------
    E-------------------------------3-3-55-5-----3-3-55-5--------
    
    G---------------------------------------------9--9-----------
    D--0-2-0---0-2-0--0-2-0---0-2-0--------------9---------------
    A-2------22------2------22------5---5---55--7---7-7/--------- x3
    E-----------------------------------------
  • Calla y que el secreto nunca salga de nuestros labios    
    Fa# fa# fa# mi re do fa# sol fa# mi re re do#  re do# re  
    
    De nuestros labios
    re re do#  re do# re
    
    Mordiendo la manzana sellamos este pacto es mágico 
    Si fa# sol fa# mi re do fa# sol fa# mi re re do# re do# re
    
    
    Esto es mas intimo
    re re do# re do# re
    
    Y te preguntas porque doy tantas vueltas 
    Si fa# fa# mi re re re do# re re do# si         
    
    
    soy un poseído estoy prisionero
    re re si si do# re re do# re si 
    
    No me conoces    algo tira de mi       algo tira de mi 
    Re re la re do#   re re do# re do# si   re re do# re do# si
    
    
    En mas de una ocasión me habrás encontrado  
    Si   fa# fa# fa#  sol la     mi  re si    fa# sol fa# mi  
    
    un poco ido y trastornado
    re re do# re re re re mi fa# si
    
    Escúchame como voy a explicarte    
    Si fa# sol la re re re do# re do# si la  
    
    que algo tira de mi      que  algo tira de mi
    re re re  do# re do# re   re re re  do# re mi fa# mi 
    
    Sin tomar aliento estoy
    F
  • +
    ¡Colabora con nosotros!
    Envíanos tu versión de esta canción

Letra de Sin aliento
Calla y que el secreto nunca
salga de nuestros labios
de nuestros labios
Mordiendo la manzana
sellamos este pacto
es magico
es lo mas intimo
Y te preguntas por que doy
tantas vueltas, soy un poseso
estoy prisionero
yo me conozco
algo tira de mi
En mas de una ocasion
me habras encontrado
un poco ido, quizas trastornado
escuchame como voy a explicarte
que algo tira de mi
que algo tira de mi
Sin tomar aliento estoy
rodeado de calor
escucha tengo que respirar y respirar (x2)
Para
mirame a los ojos
y toma mis manos
coje mis manos
y no te preguntes
por que
das tantas vueltas
no te conoces
estas prisionero
algo tira de mi
algo tira de mi
Sin tomar aliento... (x3)
Sin tomar aliento... (x4)
Sin tomar aliento estoy (x3)




[Sin aliento chords][Sin aliento cifra]
© LaCuerda.net · aviso legal · privacidad · es · en · pt · contacto