Acordes de Guitarra » D »Danilo Montero » Tu eres rey (Tab)

Tu eres rey
Danilo Montero

Letras, Acordes y Tabs para Guitarra, Bajo y Ukulele

  • G(add2) D   C(add2) G(add2) D   C(add2)
     Cuan asombrosas  son Dios, tus obras
    Em7       D C(add2) Em7     D   C(add2)
      Nadie como tú,   nadie como tú
    G(add2) D C(add2) G(add2) D   C(add2)
     Te proclamamos, Rey soberano
    Em7       D  C(add2) Em7  D   C(add2)
      Nadie como tu,   nadie como tu
    
    Precoro:
            G(add2) C(add2) Am7(add4)
    Porque grandes      son tus obras
         G(add2) Am7(add4)         C(add2)
    Grande es    tu                 poder
         G(add2)   D         Em7  D     C(add2)
    El cielo y la tierra y debajo de ella
        G(add2) D       C(add2)
    declaran tu eres Rey.
    Coro:
            G D C                      G D C
    
  • INTRO: G D C
           G D C
    
            G         D   C
    e------------------------------------------
    B------------------------------------------
    G-----------7-----7------------------------
    D-------5-5---5-5---7-5--------------------
    A------------------------------------------
    E------------------------------------------ X 4 ... (PUNTEO 1)
    
    G     D     C    G      D       C
     Cuan asombrosas  son Dios, tus obras
    Em       D    C  Em       D    C
      Nadie como tu,   nadie como tu
    G     D    C    G     D   C
     Te proclamamos, Rey soberano
    Em       D    C  Em       D    C
      Nadie como tu,   nadie como tu
    
    
  • e------------- 10-----------------10-----------------------
    B---7----8---------7-------8-------------7-----8--------
    G-------------------------------------------------------9---
    D-----------------------------------------------------------
    A------------------------------------------------------------
    E-----------------------------------------------------------
    
    e------------ 10---------------10------------------------------------
    B---7----8--------7-------8---------7-----8(prolongado con delay)-
    G--------------------------------------------------------------------------
    D--------------------------------------------------------------------------
    A--------------------------------------------------------------------------
    E--------------------------------------------------------------------------
    
    De aqui se repite la primera tablatura
    y después la segunda y eso es todo, aqui adjunto
    la transcripción de Yeik y Esdras
    
    G     D     C    G      D       C
     Cuan asombrosas  son Dios, tus obras
    
  • +
    ¡Colabora con nosotros!
    Envíanos tu versión de esta canción

Letra de Tu eres rey
Cuan asombrosas son Dios, tus obras
Nadie como tú, nadie como tú
Te proclamamos, Rey soberano
Nadie como tu, nadie como tu
Precoro:
G(add2) C(add2) Am7(add4)
Porque grandes son tus obras
Grande es tu poder
El cielo y la tierra y debajo de ella
declaran tu eres Rey.
Tu eres Rey, (PUNTEO 1) Tu eres Rey (PUNTEO 1)
Tu eres Rey, (PUNTEO 1) Tu eres Rey (PUNTEO 1)
REPITE TODO.
PRECORO:
G(add2) C(add2) Am7(add4)
Porque grandes son tus obras
G(add2) Am7(add4) C(add2)
Grande es tu poder
El cielo y la tierra y debajo de ella
declaran tu eres Rey.
Porque grandes son tus obras
Grande es tu poder
El cielo y la tierra y debajo de ella
declaran tu eres Rey.
1 VEZ CORO…
FINAL:
Tu eres rey, tu eres rey ( tu eres rey),
Tu eres rey, tu eres rey ( tu eres rey),
Tu eres rey, tu eres rey, tu eres rey.
Saludos y Bendiciones, cualquier consulta me pueden escribir a los correos:
h2s83@yahoo.es / hollman83@gmail.com




[Tu eres rey chords][Tu eres rey cifra]
© LaCuerda.net · aviso legal · privacidad · es · en · pt · contacto