Acordes de Guitarra » D »Danilo Montero » Todo Poderoso (Tab)

Todo Poderoso
Danilo Montero

  • Letra y Acordes
    intro: Bm - G - D - A (X2)
    
        Bm               G         D             A
    la unica razon de mi adoracion eres tu mi Jesus
        Bm            G        D             A
    el unico motivo para vivir eres tu mi Señor
          Bm          G                  D            A
    mi unica verdad esta en ti, eres mi luz y mi salvacion
          Bm           G              D               A
    mi unico amor eres tu Señor y por siempre te alabare!!
    
    
    CORO
    
               Bm        G         D             A
    // tu eres todo poderoso, eres grande y majestuoso
          Bm           G            D           A
    eres fuerte invencible y no hay nadie como Tù//
    
    
    
  • Letra y Acordes
    Intro.Gm9 ,Ebmaj7 ,Bb2 ,F7sus,F
    
    verse.
       Gm9                Ebmaj9
    la unica razon de mi adoracion
    Bb2           Fsus F
    eres tu mi jesus
       Gm9            Ebmaj9
    el unico motivo para vivir
    Bb2           Fsus D7(#5,#9)
    eres tu mi seÑor
          Gm9         Ebmaj9
    mi unica verdad esta en ti
            Bb2            Fsus Ab13
    eres mi luz y salvacion
          Gm9          Ebmaj9
    mi unico amor eres tu seÑor
            Bb2            Fsus F
    y por siempre te alabare
    
    
  • Tablatura
    e----------------------------------------
    B----------------------------------------
    G--------7----------11-----7-------------   X2
    D--7--9-----9--12-------9-----9--7--9----
    A----------------------------------------
    E----------------------------------------
    
         Bm                G
    //la única razón de mi adoración
    D                A
    eres tú mi Jesús
       Bm           G
    el único motivo para vivir
    D                A
    eres tú mi Señor
       Bm           G
    mi única verdad está en ti
             D                A
    eres mi luz y mi salvación
       Bm              G
    
  • Tablatura
    Bm
    Bm                      G
    La única  razón de mi adoración
      D            A
    Eres tu mi  Jesús
       Bm              G
    El único motivo para vivir
      D           A
    Eres tu mi señor
           Bm         G
    Mi única verdad esta en  ti
             D             A
    Eres mi luz y mi salvación
          Bm           G
    Mi único amor eres tu señor
             D            A
    Y  por siempre te alabaré
    
    
            Bm        G
    
  • Tablatura
        Bm
    E||----------------------------------------|
    B||------------------7---------------------|
    G||--------7------7------7-----7-----------|   X4
    D||--7--9-----9-------------9-----9---9----|
    A||----------------------------------------|
    E||----------------------------------------|
    
    
    En: "Mi unica Verdad" entra este arpegio
    
              Bm                  G                  D                  A
    e||------------------|------------------|------------------|------------------|
    B||----------3-------|----------3-------|------3---3-------|------2---2-------|
    G||------4-----4-----|------0-----0-----|----2-------2-----|----2-------2-----|
    D||----4---4---------|----0---0---------|--0-----0---------|--------2---------|
    A||--2---------------|------------------|------------------|--0---------------|
    E||------------------|--3---------------|------------------|------------------|
    
    Pero en las segunda vuelta no ce hace el Arpegio de  A
    
  • Tab p/Bajo
    bueno aqui les va la cansion estoy seguro que en un
    95 0/0 se parese a la version original compruebenla luego
    les paso la otra parte esta facil esta en base de quintas i octavas
    chao----------
    
    
    Intro
    
    E|------2-5-------|
    A|--2-2------2-2--|
    D|----------------| X2
    G|----------------|
    
    Verso
    
    E|--------2-3-3------3-5-5--|
    A|--2-2-2-------5-5-5-------|
    D|--------------------------| X2
    G|--------------------------|
    
    E|-2--5--------2-3-3-------3-5-5--|
    A|------2-2-2--------5-5-5--------|
    D|--------------------------------|
    G|--------------------------------|
    
    E|--------2-3-3------5-5-5-5-5-|
    A|--2-2-2--------5-5-----------|
    D|-----------------------------|
    G|-----------------------------|
    
     primer  Coro
    
    E|-------2---5-3-3--------------3--5---------5-|
    A|-2---2--2--------5------5--5-------7-7---7---|
    D|---4---------------5-4----7--7---------7-----|
    G|---------------------------------------------|
    
    E|------------3-3--3---------------5----5-5--5-5-5-5-|
    A|-2-2--2------------5------5-5--5---5
  • +
    ¡Colabora con nosotros!
    Envíanos tu versión de esta canción

Letra de Todo Poderoso
verse.
la unica razon de mi adoracion
eres tu mi jesus
el unico motivo para vivir
eres tu mi seÑor
mi unica verdad esta en ti
eres mi luz y salvacion
mi unico amor eres tu seÑor
y por siempre te alabare
Chorus.
eres todo poderoso eres grande y majestuoso
eres fuerte invensible y no hay nadie como tu 2davez continua
este arreglo se repite.la produccion
original si mas no recuerdo este en el tono
el intermedio puede usarse como break o solos.
el Fsus es sustituido en los 2dos tiempos por
el domonante o su tritono.
interpretaciones u/o arreglos originales



© LaCuerda.net · aviso legal · privacidad · contacto