Acordes de Guitarra » D »Danilo Montero » Qué dulce (Tab)

Qué dulce
Danilo Montero

Letras, Acordes y Tabs para Guitarra, Bajo y Ukulele

  •        D9        G6-9        Bmmaj7       Bm7         Bm6-9         C         Em7     A9
                   (SOL seis                          (SI menor seis
                     nueve)                                nueve)
    E   |--0---|  |----0----|   |---2---|   |----2---|   |--2---|   |---3----|  |--0--| |--0--|
    B   |--3---|  |----3----|   |---3---|   |----3---|   |--0---|   |---1----|  |--3--| |--0--|
    G   |--2---|  |----2----|   |---3---|   |----2---|   |--1---|   |---0----|  |--0--| |--2--|
    D   |--0---|  |----0----|   |---4---|   |----4---|   |--0---|   |---2----|  |--2--| |--2--|
    A   |------| x|---------|   |---2---|   |----2---|   |--2---|   |---3----|  |--2--| |--0--|
    E  x|------|  |----3----|  x|-------|  x|--------|  x|------|  x|--------|  |--0--| |-----|
    
    
    Intro:
    D9 G6-9  D9  G6-9   X2
    
    
      D9                          G6-9
    a)Qué dulce es estar en tu precencia
           D9                          G6-9
      contemplando la hermosura de tu tu Majestad,
      Bm        Bmmaj7    Bm7     Bm6-9
    
  • intro:
    E------------------------------------------------------
    B------------------------------------------10----------
    G--9------9--11-----------9-----9--11--7---------------
    D----7------------7--9------7--------------------------
    A------------------------------------------------------
    E------------------------------------------------------
    
    
    
    solo:
    E-----------------------------------------------------
    B-----10-----------------10-------------------------------
    G--11-----11--9--7----11----11--9--7--11-----------
    D------------------------------------------------------
    A------------------------------------------------------
    E------------------------------------------------------
    
    E-------------------------------------------------5-----
    B----------------------------------------------5--------
    G---12-11-12-11-12-11--7----10-9-10-9-10-9--5-----------
    D------------------------------------------------------
    A------------------------------------------------------
    E-----------------------------
  • +
    ¡Colabora con nosotros!
    Envíanos tu versión de esta canción

Letra de Qué dulce
nueve) nueve)
a)Qué dulce es estar en tu precencia
contemplando la hermosura de tu tu Majestad,
y reconociendo que tu eres Señor,
Todopoderoso y el gran Yo Soy.
a)Qué dulce es estar en tu precencia
contemplando la belleza de tu Santidad,
y reconociendo que tu eres Señor,
Todopoderoso y el gran Yo Soy.
mi corazón se une
a la melodia angelical.
a)Qué dulce es estar en tu precencia
contemplando la belleza de tu Santidad,
y reconociendo que tu eres Señor,
Todopoderoso y el gran Yo Soy.
Interludio:
Coda:




[Qué dulce chords][Qué dulce cifra]
© LaCuerda.net · aviso legal · privacidad · es · en · pt · contacto
DINAMICO