Acordes de Guitarra » D »Danilo Montero » Has Aumentado (Tab)

Has Aumentado
Danilo Montero

Letras, Acordes y Tabs para Guitarra, Bajo y Ukulele

  • Em       G        F#m7          B7      
    Has aumentado ¡oh Dios! tus maravillas, 
    
    Em    G         A B7
    enumerarlas no puedo.
    
    Em         G        F#m7     B7      
    Si yo anunciare y hablare de ellas, 
    
    Cmaj7                  B7
     no hay tiempo para terminar.
    
    Em        G       F#m7          B7       
    Has aumentado ¡oh Dios! tus maravillas 
    
      Em     G        A B7
    y ya no puedo contarlas.
    
    Em     G        F#m7         B7      
    Misericordia me das día tras día, 
    
  • Intro: //Em7 - G, Asus4 - Bsus4,
             Em7 - G, Asus4 - Bsus4. //
    
      Em7         G       F#m7         B7sus4
         Has aumentado oh Dios tus maravillas
    Em7      G        Asus4 - A - Bsus4
       Enumerarlas no pu   -  e - do
    Em7           G        F#m7     B7sus4
       Si yo anunciaré y hablare de ellas
              Cmaj9            Bsus4 - B+7(#9)
       No hay tiempo para terminar
    Em7         G       F#m7         B7sus4
       Has aumentado oh Dios tus maravillas
    Em7          G      Asus4 - A - Bsus4
       Y ya no puedo contar    -    las
    Em7       G        F#m7         B7sus4
       Misericordia me das día tras día
          Cmaj9                Bsus4 - B+7(#9)
       Tu canto en mi boca estará.
    
    
  • Has aumentado ¡oh Dios! tus maravillas,
    G:-----------------------------------
    D:-----------------------------------
    A:----------------2-2----------------
    E:0-0--3-3s--2-2---------------------
    
      enumerarlas no puedo.
    
    G:-----------------------------------
    D:-----------------------------------
    A:--------0-2-------------------------
    E:0-0-3-3------------------------------
    
      Si yo anunciare y hablare de ellas,
    
    G:-----------------------------------
    D:-----------------------------------
    A:------------------------2-2--------
    E:0-0--0--3-3--3s--2-2--2------------
    
      no hay tiempo para terminar.
    
    G:-----------------------------------
    D:-----------------------------------
    A:3--3--3-3--3-3s-2-2-2--------------
    E:-----------------------------------
    
    Has aumentado ¡oh Dios! tus maravillas
    
    G:-----------------------------------
    D:-----------------------------------
    A:----------------2-2----------------
    E:0-0--3-3s--2-2---------------------
    
      y ya no puedo contarlas.
    
    G:------------------------
  • +
    ¡Colabora con nosotros!
    Envíanos tu versión de esta canción

Letra de Has Aumentado
Has aumentado ¡oh Dios! tus maravillas,
enumerarlas no puedo.
Si yo anunciare y hablare de ellas,
no hay tiempo para terminar.
Has aumentado ¡oh Dios! tus maravillas
y ya no puedo contarlas.
Misericordia me das día tras día,
tu canto en mi boca estará.
Grandes son tus obras,
poderío y majestad.
Tuyo es todo imperio,
toda gloria y potestad.
Grande es tu dominio
el universo lleno está de tu poder
Grande eres Tú.




[Has Aumentado chords][Has Aumentado cifra]
© LaCuerda.net · aviso legal · privacidad · es · en · pt · contacto