Tablatura para Guitarra de Danilo Montero: Eres Tú
Conexión · Inscripción
Letras y Acordes
Pantalla Completa
Imprimir
Versión Texto
Añadir Favorito
Otras Versiones

Mostrar Diagramas
Desfile Automático
Manipular Acordes
Formato del Texto


Eres Tú(TAB)

Danilo Montero

calidad:
dmon0794
AUTOR: Danilo Montero  corregir
ALBUM: desconocido
Enviado por henry
hola como les va espero les guste este solito de guitarra..
esta muy bueno se los dejo para que lo toquen y glorifiquen el
nombre que es sobre todo nombre CRISTO...cualquier cancion que
quieran me escriben a mi correo henry_quisbert@hotmail.com


e------------------------------13h14-14--------------------------
B---------14-14/16-14h16-14h16---------14-14/16-14-12------------
G---13-15--------------------------------------------13-13/15-13-
D----------------------------------------------------------------
A----------------------------------------------------------------
E----------------------------------------------------------------

e-14h16-14-14h16-14-14h16-14-14h16-14-14h16-14p13h14-13h14p13----
B----------------------------------------------------------------
G----------------------------------------------------------------
D----------------------------------------------------------------
A----------------------------------------------------------------
E----------------------------------------------------------------

e-13h14h16-14p13h14----------------------------------------------
B------------------16p14p13--------------------------------------
G--------------------------15p13---------------------------------
D----------------------------------------------------------------
A----------------------------------------------------------------
E----------------------------------------------------------------

/=ligado(cuando te deslizas sobre la cuerda hasta llegar a el sig
         traste o nota)
h=hamer on(cuando golpeas, presionas o pulsas la cuerda con un
           dedo opcional de la mano izquierda...estoes de la
           nota que indicadespues del signo)
p=pull of(luego de hacer un hamer on jalas la cuerda hacia ariba
          o hacia abajo y la sueltas...esto provoca que realices
          sonidos sin nesesidad de utilisar la mano derecha...y
          ademas es mas rapido que puntear con la mano derecha)
nota:si no pueden hacer hamer on ni pull of intentenlo loso punteando
     con la mano derecha...chaito que dios los bendiga...y un saludo a
     todos de la mision boliviana c-5
Este fichero es trabajo propio de su transcriptor y representa su interpretación personal de la canción. El material contenido en esta página es
para exclusivo uso privado, por lo que se prohibe su reproducción o retransmisión, así como su uso para fines comerciales.

© LaCuerda.net · Aviso Legal · Privacidad