Acordes de Guitarra » D »Danilo Montero » Eres Tú (Tab)

Eres Tú
Danilo Montero

Letras, Acordes y Tabs para Guitarra, Bajo y Ukulele

  • Intro   G#m - - - B - - C#   // B  C# //
            G#m - - - B - - C#
            ( 2 veces )
    
    G#m      E
    Jesus tu eres el
    
     B            F#
    amigo que  me ama
    
    G#m      E
    Jesus tu eres la
    
        B           F#
    esperanza de mi vida
    
    
    G#m   E
    Eres, eres,
    
    
  • G#m        E        B         F#
    Jesús tu eres el amigo que me ama
    G#m        E         B            F#
    Jesús tu eres la esperanza  de mi vida
    G#m    E     B   F#
    Eres, eres, eres tú
    G#m    E    F#
    Eres, eres tú
    
    G#m       E        B         F#
    Jesús tu eres el camino y la vida
    G#m        E        B         F#
    Jesús tu eres salvación y alegría
    G#m    E     B   F#
    Eres, eres, eres tú
    G#m    E   F#
    Eres, eres tú
    
    Coro
    G#m      C#          E
    
  • //E Bsus4 C#m7 Asus2 E Bsus4 Asus2//
    
    E            Bsus4
    Eres tú la única razón
            C#m7         Asus2
    De mi adoración oh Jesús
    E               Bsus4
    Eres  tú la esperanza que
        C#m7          Asus2
    Anhele tener oh Jesús
    
    F#m7                  Bsus4
    Confié en ti me has ayudado
    F#m7                   Asus2 Bsus4
    Tu salvación me has regala---do
    E                   Bsus4
    Hoy hay gozo en mi corazón
            Asus2        B
    Con mi canto te alabare
    
    
  • Intermedio
    3º-4-3-4-3-4-3-
    Esto se repite varias veces se pueden hacer variaciones cm por ejemplo
    
    3º-4-3-4-3-4-3-4-6-4-3-
    
    Solo (Original tal y como se toca en el disco)
    
    1º------------------------------------------------------------
    2º-----------------19-18---------------------19s21-21-21------
    3º---16-18-20-20----18-20-16-18---16--------------------------
    4º18----------------------------------18--18------------------
    
    1º------------------------------------------------------------
    2º19v-18s16------------16-------------------------------------
    3º-------------18-16h18----18s16-16h18-18s16------------------
    4º------------------------------------------------18s16-16h18-
    
    
    s= slide down
    h= hammer
    v= vibrato
  • hola como les va espero les guste este solito de guitarra..
    esta muy bueno se los dejo para que lo toquen y glorifiquen el
    nombre que es sobre todo nombre CRISTO...cualquier cancion que
    quieran me escriben a mi correo henry_quisbert@hotmail.com
    
    
    e------------------------------13h14-14--------------------------
    B---------14-14/16-14h16-14h16---------14-14/16-14-12------------
    G---13-15--------------------------------------------13-13/15-13-
    D----------------------------------------------------------------
    A----------------------------------------------------------------
    E----------------------------------------------------------------
    
    e-14h16-14-14h16-14-14h16-14-14h16-14-14h16-14p13h14-13h14p13----
    B----------------------------------------------------------------
    G----------------------------------------------------------------
    D----------------------------------------------------------------
    A----------------------------------------------------------------
    E-------------------------
  •  e--------------------14-13------------------------14b-14bv-11s14v--
     B-----12-14-14b-(14bv)-------14s16----14----12v--------------------
     G--13-----------------------------16----13-----13v-----------------
     D------------------------------------------------------------------
     A------------------------------------------------------------------
     E------------------------------------------------------------------
    
    
     e--14b-(14bv)-11s14v------------------------------------------------
     B-------------------16-14-12--12-14-16-14-12-16v--16-14-12----------
     G---------------------------------------------------------15-13v----
     D-------------------------------------------------------------------
     A-------------------------------------------------------------------
     E-------------------------------------------------------------------
    
    
      (xbv)los que estan entre parentesis tienen que hacer un bend
      levantando la cuerda y hacer un vibrato m
  • +
    ¡Colabora con nosotros!
    Envíanos tu versión de esta canción

Letra de Eres Tú
Eres tú la única razón
De mi adoración oh Jesús
Eres tú la esperanza que
Anhele tener oh Jesús
Confié en ti me has ayudado
Hoy hay gozo en mi corazón
Con mi canto te alabare
//Te alabare, te glorificare
Te alabare mi buen Jesús//
Esto X 2 veces
En todo tiempo te alabare
En todo tiempo te adorare
///Te alabare, te glorificare
Te alabare mi buen Jesús///
Tonos no comunes:
Ojalá y esta cancion les sea de bendición
Dios les bendiga




[Eres Tú chords][Eres Tú cifra]
© LaCuerda.net · aviso legal · privacidad · es · en · pt · contacto