Acordes de Guitarra » D »Danilo Montero » Cantaré de Tu Amor (Tab)

Cantaré de Tu Amor
Danilo Montero

Letras, Acordes y Tabs para Guitarra, Bajo y Ukulele

  • F             C/E
    por mucho tiempo busqué
       F          C/E
    una razón de vivir
    F        G          Am7
    en medio de mil preguntas
    F                G
    tu amor me respondió
    
    (igual)
    
    ahora veo la luz
    y ya no tengo temor
    tu reino vino a mi vida
    y ahora vivo para tí
    
          C         G/B
    cantaré de tu amor
           Am7       C       F
    rendiré mi corazón ante tí
    
  • ////C - Csus4////
    
    
    F(add2)                C/E
    por mucho tiempo busqué
    F(add2)           C/E
    una razón de vivir
    F (add2)  G(add2)    Am
    en medio de mil preguntas
    Fm6                 G(add2)
    tu amor me respondió
    
    F(add2)         C/E
    ahora veo la luz
    F(add2)            C/E
    y ya no tengo temor
    F         G         Am
    tu reino vino a mi vida
             F          G5
    y ahora vivo para tí
    
  • Intro:   ///C   F/C   G(omit3)/C ///
    
    F(add2)                C/E
       Por mucho tiempo busqué,
    F(add2)           C/E
       Una razón de vivir,
    F(add2)     G(add2)   Am
       En medio de mil preguntas,
        Fm6          G(add2)
    Tu amor me respondió.
    
    F(add2)         C/E
       Ahora veo la luz,
    F(add2)            C/E
       Y ya no tengo temor,
    F           G         Am
       Tu reino vino a mi vida,
            F         G
    Y ahora vivo para ti.
    
    
  •          v
    e|---------------------------------------10----12b14--14r12-10-12-10------|
    B|-----------------------------10--10h12----10-----------------------12---|
    G|------7-6--------7--9-7-9s11--------------------------------------------|
    D|--5s7--------7s9--------------------------------------------------------|
    A|------------------------------------------------------------------------|
    E|------------------------------------------------------------------------|
    
    
                                                                            v
    e|--------10----12s14---12------------------------------------------------|
    B|--10h12----10------------14r12-10--------7-10s12--12-10-----------------|
    G|---------------------------------------7----------------11-9-11---9---7-|
    D|-----------------------------------7s9------------------------------9---|
    A|------------------------------------------------------------------------|
    E|------------------------------------------------------------
  • ::InTrO::
    
    B|------------|-------------|------------|-------------------|
    E|------------|-------------|------------|-------------------|
    A|------------|-------------|------------|----------------10s|
    D|-10---------|-10-----10-10|-10---------|-10---10h12h10-----|
    G|------------|-------------|------------|-------------------|
    
    B|------------|-------------|------------|------|-------|------||
    E|------------|-------------|------------|------|-------|----0-||
    A|-3----------|-3-----------|-3----------|-3----|-------|------||
    D|------------|-------------|------------|------|-------|------||
    G|------------|-------------|------------|------|-------|------||
    
    
    ::EsTrOfA::
    B|-----------|-------------|------------|------------||
    E|-1---1-1---|-0---0-0-----|-1---1-1----|-0---0-0----||
    A|-----------|-------------|------------|------------||
    D|-----------|-------------|------------|------------||
    G|-----------|-------------|------------|------------||
    
    B|-----------|-------------|------------|-------
  • +
    ¡Colabora con nosotros!
    Envíanos tu versión de esta canción
  • Tutorial
    HD
    cantare de tu amor tutorial con guitarra acustica
    4:56
  • Tutorial
    HD
    Cantare de tu Amor - Danilo Montero (Tutorial Guitarra)
    FACIL
    8:23

Letra de Cantaré de Tu Amor
por mucho tiempo busqué
una razón de vivir
en medio de mil preguntas
tu amor me respondió
(igual)
ahora veo la luz
y ya no tengo temor
tu reino vino a mi vida
y ahora vivo para tí
cantaré de tu amor
rendiré mi corazón ante tí
tu serás mi pasión
y mis pasos se guiarán por tu voz
mi jesús y mi rey
de tu gran amor cantaré
(SUBE A D)
duda o comentario a mi email
Bendiciones....Horacio




[Cantaré de Tu Amor chords][Cantaré de Tu Amor cifra]
© LaCuerda.net · aviso legal · privacidad · es · en · pt · contacto