Acordes de Guitarra » D »Danilo Montero » La unica razón (Tab)

La unica razón
Danilo Montero

Letras, Acordes y Tabs para Guitarra, Bajo y Ukulele

  •   |         Bm           | E |         Bm            | E
    e)|----------------------|---|-----------------------|
    B)|-----------7----------|---|----------7------------|
    G)|-----7---7---7---7----|---|----7---7---7---7------|
    D)|-7-9---9-------9---9-9|---|7-9---9-------9---9-9--|
    A)|----------------------|---|-----------------------|
    E)|----------------------|---|-----------------------|
    
    
       Bm                  G
    La única Razón de mi adoración
    D             A
    Eres tú mi Jesús
       Bm             G
    El único motivo para vivir
    D              A(la segunda vez se pone F#)
    Eres tú Mi Señor
    
          Bm          G
    Mi única verdad esta en Ti
    
  • INTRO: Bm-G-D-A
    e)|----------------------x-|----------------------x-|
    B)|----------------------x-|----------------------x-|
    G)|-----7----10----7-----x-|-----7----10----7-----x-|
    D)|--7s9-9-12--12-9-9-7--5-|--7s9-9-12--12-9-9-7--5-|
    A)|-5--------------------5-|-5--------------------5-|
    E)|----------------------3-|----------------------3-|
    
    VERSO:
       Bm                   G
    La única Razón de mi adoración
      D             A
    eres tú mi Jesús
       Bm             G
    el único motivo para vivir
     D              A (SEGUNDA VUELTA F#)
    eres tú mi Señor
    
          Bm           G
    Mi única verdad esta en ti
    
  • Bm - G - D - A
    
    Solo de la Unica Razon:
    
    e------------------------------------------------------------|
    B--------5---7------5---7/10---8---7---10--------------------|
    G-----7----------7-------------------------------------------|
    D------------------------------------------------------------|
    A------------------------------------------------------------|
    E------------------------------------------------------------|
    
    e---------------------------10---12---14---12----------------|
    B--------5---7------5---7------------------------------------|
    G-----7----------7-------------------------------------------|
    D------------------------------------------------------------|
    A------------------------------------------------------------|
    E------------------------------------------------------------|
    
    Espero que les sirva... Bye
  • +
    ¡Colabora con nosotros!
    Envíanos tu versión de esta canción
  • Tutorial
    La Unica Razon-Danilo Montero-Ukulele Tutorial
    6:30
  • Tutorial
    HD
    La unica razon de mi Adoracion
    Musica Cristiana con Acordes - Ukulele Master
    2:50

Letra de La unica razón
La única Razón de mi adoración
Eres tú mi Jesús
El único motivo para vivir
Eres tú Mi Señor
Mi única verdad esta en Ti
Eres mi luz y mi salvación
Mi único amor eres Tu Señor
Y por siempre te alabaré
Tu Eres Todo poderoso
Eres Grande y Majestuoso
Eres Fuerte e Invencible
Y no hay nadie como Tú
Se vuelve a repetir todo y luego:
Eres Todo poderoso
Eres Grande y Majestuoso
Eres Fuerte e Invencible
Y no hay nadie como Tú




[La unica razón chords][La unica razón cifra]
© LaCuerda.net · aviso legal · privacidad · es · en · pt · contacto