Acordes de Guitarra » D »Daniel me estás matando » Somos Algo (Tab)

Somos Algo
Daniel me estás matando

Letras, Acordes y Tabs para Guitarra, Bajo y Ukulele

  • e -11----10----10-11-10----11-10-----------10------------
    B ----------13----------13-------11-----------13-10------
    G ----------------------------------12--------------11---
    D -------------------------------------12--------------12
    A -------------------------------------------------------
    E -------------------------------------------------------
    
    e ---------------------------------------
    B -10----------10-11----10-11-12---------
    G ----12-11-12-------12----------12-10---
    D -------------------------------------12
    A ---------------------------------------
    E ---------------------------------------
    
    e -11----10----10-11-10----11-10------------11-------10-
    B ----------13----------13-------11------------13-14----
    G ----------------------------------12------------------
    D -------------------------------------12---------------
    A ------------------------------------------------------
    E ------------------------------------------------------
    
  • +
    ¡Colabora con nosotros!
    Envíanos tu versión de esta canción

Letra de Somos Algo
Perdóname, mi amor, la indiscreción
no ves que tengo prisa
para posar mi vida en el lunar
que habita tu sonrisa.
Perdóname, mi amor, la insinuación
recuerda que es un pacto
tú escoges si en tu lienzo hago un tachón o impresionismo abstracto.
Por algo estamos rotos desde el corazón
para que entre la luz de esta constelación,
por algo coincidimos en este lugar
y el mundo se detiene a vernos girar.
Mañana yo no sé (lo que vaya a pasar)
Vayamos donde el viento (nos quiera llevar)
pero es que al corazón no lo puedes callar; los dos sentimos algo.
Perdóname, mi amor, la indiscreción
pero es que tengo prisa
para posar mi vida en el lunar
que habita tu sonrisa
Por algo estamos rotos desde el corazón
para que entre la luz de esta constelación,
por algo coincidimos en este lugar
y el mundo se detiene a vernos girar.
Mañana yo no sé (lo que vaya a pasar)
Vayamos donde el viento (nos quiera llevar)
pero es que al corazón no lo puedes callar; los dos sentimos algo.




[Somos Algo chords][Somos Algo cifra]
© LaCuerda.net · aviso legal · privacidad · es · en · pt · contacto