Acordes de Guitarra » D »Daniel Calveti » Mi mundo necesita de tí (Tab)

Mi mundo necesita de tí
Daniel Calveti

Letras, Notas, Punteos, Tablaturas y Acordes de Guitarra (Tabs & Chords)

  • Letra y Acordes
    Bb                      F
    Se que tienes mucho que atender
                    D#aad9
    pero mi mundo se destruye
                     Bb
     y no sabemos que hacer
     F                      Gm
    alguien me dijo que una oracion
                        D#aad9                 Bb
    la diferencia  puede hacer por eso vine a ti
                                F
    por que este mundo es mi casa
                   F
    necesitamos de ti
    
    PRE CORO
    D#         Bb F                          Gm
    tengo fe en ti creo que las cosas pueden cambiar
                   Cm          D#     Bb            F Bb
    el mundo llora aquí pero tu los puedes volver hacer reir
    
  • Tablatura
    e)|--------------8--10-13--------------------------------------------------
    B)|--3s8---9-10-----------13-15----16-15-----------13-15s18--15-16-15------
    G)|-----------------------------15-------12--14-15--------------------17---
    D)|------------------------------------------------------------------------
    A)|------------------------------------------------------------------------
    E)|------------------------------------------------------------------------
    
    
    e)|-----------------16s18-----------------------------
    B)|---15-----16-15------------------------------------
    G)|------15-------------------------------------------
    D)|---------------------------------------------------
    A)|---------------------------------------------------
    E)|---------------------------------------------------
    
    
    
    
    A#            Dm
    Se que tienes mucho que atender
    
  • +
    ¡Colabora con nosotros!
    Envíanos tu versión de esta canción

Letra de Mi mundo necesita de tí
Se que tienes mucho que atender
pero mi mundo se destruye
y no sabemos que hacer
alguien me dijo que una oracion
la diferencia puede hacer por eso vine a ti
por que este mundo es mi casa
necesitamos de ti
PRE CORO
tengo fe en ti creo que las cosas pueden cambiar
el mundo llora aquí pero tu los puedes volver hacer reir
//tu que estas alla y nosostros aquí
ven visitanos te ruego
haznos sonreir SE REPITE PRECORO Y CORO Y SIGUE PUENTE
ATTE LEIKO (otoniel)
saludos a tabasco y al templo bethel



© LaCuerda.net · Aviso Legal · Privacidad