Acordes de Guitarra » D »Daniel Calveti » Espíritu Santo (Tab)

Espíritu Santo
Daniel Calveti

Letras, Notas, Punteos, Tablaturas y Acordes de Guitarra (Tabs & Chords)

  • Letra y Acordes
    G               D                      F
    Espíritu santo,   revélame a Cristo
                   C         G
    Quiero más de ti, Señor
                       D                    F
    Tú eres mi fuerza,   tú eres mi ayuda
                      C
    Sin ti no puedo más, Señor.
    
                Coro
    G
    Yo te adoro, porque tú eres
    D
    Yo te adoro, porque tú eres
    Em                          C
    Yo te adoro, porque tú eres Santo.
  • Tablatura
    INTRO: //G D F C//
    
    G                  D                      F
    //Espíritu santo,   revélame a Cristo
                   C         G
    Quiero más de ti, Señor
                       D                    F
    Tú eres mi fuerza,   tú eres mi ayuda
                      C
    Sin ti no puedo más, Señor. //
    
    CORO
    
          G
    //Yo te adoro, porque tú eres
        D
    Yo te adoro, porque tú eres
        Em                       C
    Yo te adoro, porque tú eres Santo. //
    
    
  • Tab p/Bajo
    hola.. meyamo fernando apodaca soi de obregon sonora esta es una mui buena
    cancion de DANIEL CALVETI.. y se la dedico a una mujer mui hermosa ke se yama
    SAMANTHA.. y le mando saludos al many, al carlos, al vladi y ala congregacion
    de amistad cristiana de obregon.. no kreo ke este al 100% correcta pero les va
    a aser un paro..
    
    
    ESTROFA:
    B----------------------------------------------------
    E-3-3-----3---------1-1-----1------------------------
    A----------5-5---------------3-3---------------------X4
    D----------------------------------------------------
    G------------------------------------5s4-5-4-0-------
    
    
    CORO:
    B---------------------------------------------------------
    E-3-3---33-3----------------------------------------------
    A-----------------5-5--55-5-----7-7--77-7/3-3----33-3----- X2
    D---------------------------------------------------------
    G---------------------------------------------------------
    
    ESTROFA:
    B--------------------------------------------------
  • +
    ¡Colabora con nosotros!
    Envíanos tu versión de esta canción

Letra de Espíritu Santo
Espíritu santo, revélame a Cristo
Quiero más de ti, Señor
Tú eres mi fuerza, tú eres mi ayuda
Sin ti no puedo más, Señor.
Yo te adoro, porque tú eres
Yo te adoro, porque tú eres
Yo te adoro, porque tú eres Santo.



© LaCuerda.net · Aviso Legal · Privacidad
DINAMICO