Acordes de Guitarra » D »Daniel Calveti » Dios (Tab)
  •   |      Em       |     Dadd2     |
    e)|-------0-----0-|-------0-----0-|
    B)|---0-----0-----|---3-----3-----|
    G)|-----0-----0---|-----2-----2---|
    D)|-2-------------|-0-------------|
    A)|---------------|---------------|
    E)|---------------|---------------|
    
      |          C          |
    e)|-------0-----0-----0-|
    B)|---1-----1-----1-----|
    G)|-----0-----0-----0---| X 3
    D)|---------------------|
    A)|-3-------------------|
    E)|---------------------|
    
    (En las estrofas se utiliza el mismo arpegio)
    
      Em     Dadd2  C
    //Dios de Habraam
    
  • +
    ¡Colabora con nosotros!
    Envíanos tu versión de esta canción

Letra de Dios
(En las estrofas se utiliza el mismo arpegio)
//Dios de Habraam
Dios de Isa--ac
Dios de Jacob
Ayúdanos, ayúdanos
Ayúdanos, ayúdanos//
Queremos contar de tus maravillas
Abre el mar en dos y déjanos pasar
Queremos tomar leche y miel
De el río que fluye de tu espíritu
//Dios de Habraam
Dios de Isa--ac
Dios de Jacob
Ayúdanos, ayúdanos
Ayúdanos, ayúdanos//
Queremos contar de tus maravillas
Abre el mar en dos y déjanos pasar
Queremos tomar leche y miel
De el río que fluye de tu espíritu
///Dios Dios Dios Dios///
Queremos contar de tus maravillas
Abre el mar en dos y déjanos pasar
Queremos tomar leche y miel
De el río que fluye de tu espíritu
Tonos no comunes:




[Dios chords][Dios cifra]
© LaCuerda.net · aviso legal · privacidad · es · en · pt · contacto