Acordes de Guitarra » D »Los Dandys » Gema (Tab)

Gema
Los Dandys

Letras, Acordes y Tabs para Guitarra, Bajo y Ukulele

  • Em                D
    Tu como piedra preciosa
              C
    comodivina joya
                B7
    valiosa de verdad,
    C                B7
    si mis ojos no me mienten
    C                B7
    si mis ojos no me engañan
    Am  B7               E
    tu belleza es sin igual.
    
    E        B7              E
    Tuve una vez la ilusion
       B7            E
    de tener un amor
                  B7
    que me hiciera valer
    luego que te vi mujer
    
  • Em                D                  C
    Tú como piedra preciosa, como divina joya,
    
                B7     C
    valiosa de verdad,
    
                      B7       C                     B7     Am
    si mis ojos no me mienten,   si mis ojos no me engañan,
    
                       B7
    tu belleza es sin igual.
    
    E        B7        E           B7      E
    Tuve una vez la ilusión,  de tener un amor,
    
             Edim    B7
    que me hiciera valer,
    
    F#m       B7      F#m         B7      F#m
    luego que te vi mujer,  yo te pude querer,
    
  • Intro Em D C B7
    
    Em                D
    Tu como piedra preciosa
                C
    como divina joya
                 B7
    valiosa de verdad,
    C                 B7
    si mis ojos no me mienten
    C                   B7
    si mis ojos no me engañan
    Am  B7              E
    tu belleza es sin igual.
    
    E        B7          E
    Tuve una vez la ilusión
       B7         E
    de tener un amor
    G#m  Gm  F#m    B7
    
  • e ------------------------------------------------
    B ------------------------------------------------
    G ---0-2-4-2-0----------------0-2-0---------------
    D 2-4---------4-2-0------0-2-4-----4-2-0----------
    A --------------------------------------3---------
    E ------------------------------------------------
    
    e ------------------------------------7---------12
    B -------------------2-0----------------8-7-------
    G ------0---------------2-0-2-0-------------------
    D -0-2-3-3-2-0-------------4---4-2----------------
    A 3-----------3-2---------------------------------
    E -------------------------------------------0----
    
    Em          G        D                   C
    TÚ, COMO PIEDRA PRECIOSA, COMO DIVINA JOYA,
                  B7
    VALIOSA DE VERDAD.
    Am                    B7     Am                   B7
    SI TUS OJOS NO ME MIENTEN, SI TUS OJOS NO ME ENGAÑAN,
    
  • MIm               RE
    TU COMO PIEDRA PRECIOSA
                 DO
    COMO DIVINA JOYA
                SI7
    VALIOSA DE VERDAD
    DO                  SI7
     SI MIS OJOS NO ME MIENTEN
    DO                   SI7
    SI MIS OJOS NO ME ENGAÑAN
    LAm                 SI7
    TU BELLEZA ES SIN IGUAL.
    
    
    MI       SI7      MI
    TUVE UNA VEZ LA ILUCION
         SI7     MI
    DE TENER UN AMOR
                     SI7
    QUE ME HICIERA VALEER
    
  •  Em                     D                      C                      B7
    e-0-|-0-2-3-5-7-5-3-2-0----|---0-2-3-5-3-2-0------|-----0-2-3-2-0-------|
    b---|-------------------3*-|-3---------------3-1*-|-1-3-----------3-1-0-|
    g-0-|-0-2-4-5-7-5-4-2-0----|---0-2-4-5-4-2-0------|-----0-2-4-2-0-------|
    d---|-------------------4*-|-4---------------4-2*-|-2-4-----------4-2-1-|
    
    
            Em       B7       Em
    e-8-7-5-3--7-5-3-2--5-3-2-0--|
    b----------------------------|
    g-9-7-5-4--7-5-4-2--5-4-2-0--|
    
    
    *Donde esta el asterisco, se tocan simultaneamente (pero no al mismo tiempo)
     la 1ª y la 2ª cuerda con la posición de su respectivo tono, O.K.
     (T®) Usaré este símbolo para indicar que se va a tremolear. 
    
    
      Em                  D
    e---------------------14-10-14-10-|(T®)
    
  • +
    ¡Colabora con nosotros!
    Envíanos tu versión de esta canción

Letra de Gema
Tu como piedra preciosa
comodivina joya
valiosa de verdad,
si mis ojos no me mienten
si mis ojos no me engañan
tu belleza es sin igual.
Tuve una vez la ilusion
de tener un amor
que me hiciera valer
luego que te vi mujer
yo te pude querer
con toditita mi alma.
Eres la gema que Dios
convirtiera en mujer
para bien de mi vida
por eso quiero cantar
y gritar que te quiero
mujer consentida
por eso elevo mi voz
bendiciendo tu nombre
y pidiento amor.




[Gema chords][Gema cifra]
© LaCuerda.net · aviso legal · privacidad · es · en · pt · contacto