Acordes de Guitarra » D »Los Dandys » Como un Duende (Tab)

Como un Duende
Los Dandys

Letras, Acordes y Tabs para Guitarra, Bajo y Ukulele

  •      E7   Am
    MEDITANDO YO
            D7     G
    ME DI CUENTA QUE
             E7       Am
    AUNQUE ESTES SIN MI
          D7   G G7
    A TU LADO VOY
              C        Cm       G
    COMO UN DUENDE YO SIGO TUS PASOS
           E7                   Am
    EN MI MENTE VOY SIEMPRE CONTIGO
          D7                G
    AUYENTANDO PECADO Y FRACASO
        E7                    Am
    EVITANDO QUE EL NEGRO DESTINO
            D7                         G
    SE TE ACERQUE Y TE ATRAPE EN SUS BRAZOS.
               E7
    POR QUE QUIERO
    
  • INTRO: F#7 Bm E D A A7 D Dm A F#7 Bm E7 A
    
        F#7   Bm
    Meditando yo
            E7    A
    Me di cuenta que
             F#7    Bm
    Aunque esté sin ti
         E7    A   A7
    A tu lado voy
    
              D       Dm        A
    Como un duende yo sigo tus pasos
            F#7                 Bm
    Con mi mente voy siempre contigo
           E7               A
    Ahuyentando pecado y fracasos
       F#7                   Bm
    Evitando que el negro destino
            E7                        A
    
  •         C#(9)                F#m       E              D             A
    e--14^--13^--14^--16^--17^--14^--17^--16^--19^--16^--14^--17^--14^--12^--
    B--15^--14^--14^--17^--19^--14^--19^--17^--21^--17^--16^--19^--16^--14^--
    G------------------------------------------------------------------------
    
               D       Dm        A F#7           Bm          E          A
    e--12-12--10-10-10-12-10-12--9--9-10-12-10-9--7---------------------5---
    B--14-14--10-10-10-10-10-10-10-11-------------7--9-9-10-12-10-9-12--5---
    G---------11-11-11-10-10-10--9--9-------------7---------------------6---
    
    
         F#7   Bm
    Meditando yo,
           E7      A
    me di cuenta que,
            F#7     Bm
    aunque este sin ti,
         E7   A
    a tu lado voy.
    
    
  • e|--9--8---9--11--12---9---12--11---14--11---9---12---9--7---|
    B|-10,-9,-10--12--14--10,--14--12,--12--12--10,--10--10--9.--|
    G|-----------------------------------------------------------|
    
     _Mi+____|_____La+______|_Mi+|___Do#-____|__Fa#-__|__Si7__|_Mi+
     
    e|--4--4--5--5--5--7--5---4---4--5-7-5-4--2------0-2-0---2-0--|
    B|--5--5--5--5--5--5--5---5---5-----------2--2-4-------4------|
    G|--4--4--6,-6--6--6--6,--4,--6-----------2,------------------|
    D|------------------------------------------------------------|
    
    Adornos:
       A1)            A2)                         A3)
    e|------9--14-|---4------------------------|----9----9-(4 VECES DESDE *),---8----8(4 VECES DESDE ^)-|
    B|--10-10--14-|-----7-5-4------------------|------10--------------------------10--------------------|
    G|--11--------|-4---------6-4,-------------|-*9--------------------------^9-------------------------|
    D|------------|----------------7-6-4-------|----------------Ver explicación.------------------------|
    A|------------|----------------------7-6-4-|--------------------------------------------------------|
    E|------------|----------------------------|--------------------------------------------------------|
    
    
  • +
    ¡Colabora con nosotros!
    Envíanos tu versión de esta canción

Letra de Como un Duende
MEDITANDO YO
ME DI CUENTA QUE
AUNQUE ESTES SIN MI
A TU LADO VOY
COMO UN DUENDE YO SIGO TUS PASOS
EN MI MENTE VOY SIEMPRE CONTIGO
AUYENTANDO PECADO Y FRACASO
EVITANDO QUE EL NEGRO DESTINO
SE TE ACERQUE Y TE ATRAPE EN SUS BRAZOS.
POR QUE QUIERO
QUE A TU ALMA DE SANTA
NO CONTAGIE LA MALDAD DEL MUNDO
POR QUE AHORA, QUE TE SIENTO MIA
CADA VEZ ES MI AMOR MAS PROFUNDO.
COMO UN DUENDE YO SIGO TUS PASOS
PARA VER SI TAN SOLO ERES MIA
O REPARTES TU AMOR EN PEDASOS
REQUINTO.
POR QUE QUIERO
QUE A TU ALMA DE SANTA
NO CONTAGIE LA MALDAD DEL MUNDO
POR QUE AHORA, QUE TE SIENTO MIA
CADA VEZ ES MI AMOR MAS PROFUNDO.
COMO UN DUENDE YO SIGO TUS PASOS
PARA VER SI TAN SOLO ERES MIA
O REPARTES TU AMOR EN PEDASOS
PARA VER SI TAN SOLO ERES MIA
O REPARTES TU AMOR EN PEDASOS




[Como un Duende chords][Como un Duende cifra]
© LaCuerda.net · aviso legal · privacidad · es · en · pt · contacto
DINAMICO