Acordes de Guitarra » C »Cultura Profética » Ilegal (Tab)
  • Letra y Acordes
    LA#m  -    SOL#   (x4)
    
    LA#m               SOL#
    Tener tu ojos debe ser ilegal
    LA#m                                    SOL#
    y más si cuando miras solo inspiras a pecar
    LA#m                                         SOL#
    esa sonrisa peculiar de jugar a tentar letal
     LA#m                              SOL#
    es un dotes que sí sabes como usar para matar
     LA#m                    SOL#
    te has armado  de forma perfecta
    LA#m                            SOL#
    para hacerme agonizar ta  muerte lenta
    LA#m                      SOL#
    mientras tu boca violenta, revienta
    LA#m                                    SOL#
    dentro de mi boca como un rayo una tormenta
    LA#m                                 SOL#
    Tus manos calientan piel sólo de  rozarla
    
  • Tab p/Bajo
    Buenas este es mi primer aporte, espero les guste,
    soy de Barquisimeto,Venezuela..!
    
    cualquier aporte o duda pueden escribir a
    R_Arrieche@hotmail.com  o +0584145306037
    
    Intro
    
    G|----------------------------------|
    D|-----8------6---------------------|
    A|---8------6-------6-8-------------|
    E|--------8-------9-----9-6-6-9-9-9-|
    
    G|------------------|
    D|------------------| X2
    A|--6-8-------------|
    E|9-----9-6-6-9-9-9-|
    
    G|------------------------------------------|
    D|----------------8-----6-------------------|
    A|--6-8---------8-----6------6-8------------|
    E|9-----9-6-6-9-----8------9-----9-6-6-9-9-9|
                                      Tener Tus..
    
    G|------------------|
    D|------------------| X2
    A|--6-8-------------|
    E|9-----9-6-6-9-9-9-|
    
    G|------------------------------------------|
    D|----------------8-----6-------------------|
    A|--6-8---------8-----6------6-8------------|
    E|9-----9-6-6-9-----8------9-----9-6-6-9-9-9|
                                      Para Matar..
    
    G|------------------|
    D|
  • +
    ¡Colabora con nosotros!
    Envíanos tu versión de esta canción
  • Tutorial
    Como tocar el Ilegal con guitarra. (Stilo: "Los Felinos")
    (( Tutorial)
    )
    10:55

Letra de Ilegal
Tener tu ojos debe ser ilegal
y más si cuando miras solo inspiras a pecar
esa sonrisa peculiar de jugar a tentar letal
es un dotes que sí sabes como usar para matar
te has armado de forma perfecta
para hacerme agonizar ta muerte lenta
mientras tu boca violenta, revienta
dentro de mi boca como un rayo una tormenta
Tus manos calientan piel sólo de rozarla
y mis manos van jugando a conocer tu espalda
con toda la calma se alarga
la delicia de mi expedición hacia tus nalgas
Y no hay y más que una sola versión
una sola muestra total de perfección
llenas de luz la habitación con tus brillos de neón
y yo sin trabajo suelto asi un último botón. Y pienso
(vuelve ritmo reggae)
Que son tan sólo las doce y no se escuchan voces
sólo gemidos finos, sonidos de goce
y para cerrar la noche con broche de oro
yo te llevo al oído mi susurro y este coro
Y eso no fue nada
ya estoy en confianza negra
si me regalas la mañana
te llevo hasta la noche eterna [Bis]
Tus manos calientan piel solo de rozarlas
y mis manos van jugando a conocer tu espalda
con toda la calma se alarga
la delicia de mi expedición hacia tus nalgas
Y no hay y más que una sola versión
una sola muestra total de perfección
llenas de luz la habitación con tus brillos de neón
y yo lelo disfrutando del juego.
Y eso no fue nada
ya estoy en confianza negra
si me regalas la mañana
te llevo hasta la noche eterna [Bis]
(cejilla 6 traste dedos 3 y 4 en 8 traste cuerdas 5 y 4 )
¨echa para la gente que le guste el buen reggae¨



© LaCuerda.net · aviso legal · privacidad · contacto