Tablatura para Bajo de Cultura Profética: Ilegal
Conexión · Inscripción
Letras y Acordes
Pantalla Completa
Imprimir
Versión Texto
Añadir Favorito
Otras Versiones

Mostrar Diagramas
Desfile Automático
Formato del Texto


Ilegal(BAJ)

Cultura Profética

calidad:
cpro0212
AUTOR: Willy Rodriguez
ALBUM: Nuevo Album (2009)
Enviado por Renzo
Buenas este es mi primer aporte, espero les guste,
soy de Barquisimeto,Venezuela..!

cualquier aporte o duda pueden escribir a
R_Arrieche@hotmail.com  o +0584145306037

Intro

G|----------------------------------|
D|-----8------6---------------------|
A|---8------6-------6-8-------------|
E|--------8-------9-----9-6-6-9-9-9-|

G|------------------|
D|------------------| X2
A|--6-8-------------|
E|9-----9-6-6-9-9-9-|

G|------------------------------------------|
D|----------------8-----6-------------------|
A|--6-8---------8-----6------6-8------------|
E|9-----9-6-6-9-----8------9-----9-6-6-9-9-9|
                                  Tener Tus..

G|------------------|
D|------------------| X2
A|--6-8-------------|
E|9-----9-6-6-9-9-9-|

G|------------------------------------------|
D|----------------8-----6-------------------|
A|--6-8---------8-----6------6-8------------|
E|9-----9-6-6-9-----8------9-----9-6-6-9-9-9|
                                  Para Matar..

G|------------------|
D|------------------| X2
A|--6-8-------------|
E|9-----9-6-6-9-9-9-|

G|------------------------------------------|
D|----------------8-----6-------------------|
A|--6-8---------8-----6------6-8------------|
E|9-----9-6-6-9-----8------9-----9-6-6-9-9-9|
                                  Tus Mano Calientan..

G|------------------|
D|------------------| X2
A|--6-8-------------|
E|9-----9-6-6-9-9-9-|

G|--------------------------------|
D|----------------8-----6-------6-|
A|--6-8---------8-----6------8-6--|
E|9-----9-6-6-9-----8------9------|
  la delicia de mi expedición...



G|--------------------------------|
D|-8---------------6---8-11-10----|
A|---8-----------6-------------11-|
E|-----9-9-8-6--8-----------------|
   y no hay mas que una sola ...

G|--------------------------------|
D|-8---------------6--------6-----|
A|---8-----------6------8-6-------|
E|-----9-9-8-6--8-----9-----------|
   una sola muestra total ...

G|--------------------------------|
D|-8---------------6---8-11-10----|
A|---8-----------6-------------11-|
E|-----9-9-8-6--8-----------------|
   llena de luz la habitación....

G|--------------------------|
D|--------------------------|
A|---6-8--------6-----------|
E|-9-----9-6-7-8-8-6-0------|
  sin trabajo suelto ....




G|--------------------------------|
D|-8---------------6---8-11-10----|
A|---8-----------6-------------11-|
E|-----9-9-8-6--8-----------------|
   que son tan solo las 12 ...

G|--------------------------------|
D|-8---------------6--------6-----|
A|---8-----------6------8-6-------|
E|-----9-9-8-6--8-----9-----------|
   solo gemidos finos ...

G|--------------------------------|
D|-8---------------6---8-11-10----|
A|---8-----------6-------------11-|
E|-----9-9-8-6--8-----------------|
   Para Cerrar la noche....

G|--------------------------|
D|--------------------------|
A|---6-8--------6-----------|
E|-9-----9-6-7-8-8-6-0------|
  yo te llevo al oido ....


Se Repite Todo de Nuevo..! desde el primer Verso..!
Este fichero es trabajo propio de su transcriptor y representa su interpretación personal de la canción. El material contenido en esta página es
para exclusivo uso privado, por lo que se prohibe su reproducción o retransmisión, así como su uso para fines comerciales.

© LaCuerda.net · Aviso Legal · Privacidad