Acordes de Guitarra » C »la Cuca » La Balada (Tab)

La Balada
la Cuca

Letras, Acordes y Tabs para Guitarra, Bajo y Ukulele

  • e|---------------|---------------|
    B|-----0--------0|-----0--------0|
    G|----2-2-----2-2|----2-2-----2-2|
    D|---3---2--2---2|---3---2--2---2|
    A|--0-----0-----0|--0-----0-----3|
    E|---------------|---------------|
    INTRO [repites el arpegio varias veces(lo pongo como Asus2 con
    Una pequeña variante)]
    
    Asus2
    Perdí mis manos por querer tocarte siempre
    Asus2
    perdí mis brazos por creer que siempre estarías aquí
           D-Dsus    D-Dsus  D-Dsus   D-Bb
    O lo viví, o lo soñé, o lo viví, o lo viví.
    
    Lírica Asus2 (x2)
    Asus2
    Perdí mis piernas por andar sobre tus pasos
    Asus2
    
  • e|-----|-------|-4---|-4---|-4---|-4---|-2---|
    B|-----|--444-6|-4---|-4--7|-4---|-4--7|-2---|
    G|--2--|--666-5|-4-6-|-4---|-4-6-|-4-6-|-2---|
    D|--2--|--464-4|-4-6-|-4-6-|-4---|-4-6-|-2---|
    A|-----|------2|-4---|-4---|-4-6-|-4---|-2-4-|
    E|-----|-------|-4---|-4---|-4---|-4---|-2--5|
    
    Fig.1                  Fig.1               Fig.1
    Perdí mis manos por querer tocarte siempre
                                     Fig.1
    perdí mis brazos por creer que siempre estarias aquí
           Cs-Cs1      Cs-Cs1     Cs-Cs      Cs Cdis pausa
    O lo viví, o lo soñe, o lo viví, o lo viví. 
    
    Lírica Fig.1/Fig.1
    Fig.1                            Fig.1
    Perdí mis piernas por andar sobre tus pasos
    Fig.1                         Fig.1          
    Y ahí en fracaso me quedé, y nunca más me iré
            Cs-Cs1     Cs-Cs1   Cs-Cs1     Cs-Cdis pausa -c
    
  • intro y muchos versos
    guitarra acustica
    
    |-------------------------------------|e
    |----0--------2---------0--------0----|B
    |---2--2---2--2--------2--2---2--2----|G
    |--3----3-2---2-------3----3-2---2----|D
    |-0------0----0------0------0----0----|A
    |-------------------------------------|E
    
    Oh lo vivi
    |---2---3---2---3---2---3---2---0---------|e
    |---3---3---3---3---3---3---3---3---------|B
    |---2---2---2---2---2---2---2---2---------|G
    |---0---0---0---0---0---0---0---0---------|D
    |-----------------------------------------|A
    |-----------------------------------------|E
    
    estos son los acordes que se tocan en el coro so tienes 
    la rola te daras cuenta de como se tocan
    Coro
    |--4---5---0---4-----4---5---0---2-----|e
    |--5---5---0---4-----5---5---0---4-----|B
    |--6---6---1---5-----6---6---1---4-----|G
    |--6---7---2---6-----6---7---2---4-----|D
    |--4---7---2---6-----4---7---2---2-----|A
    |--------------------------------------|E
     (inmediatamente
      aqui)  
        |
       \|/
    |--4
  •   LAsus2/FA   LAsus2   RE     REsus   MIdim/RE  DO#m   SOL#m     LA
    e:----0-----I---0---I---2---I---3---I----0----I---4---I---4---I---5---I
    B:----0-----I---0---I---3---I---3---I----3----I---5---I---4---I---5---I
    G:----2-----I---2---I---2---I---2---I----3----I---6---I---4---I---6---I
    D:----3-----I---2---I---0---I---0---I----0----I---6---I---6---I---7---I
    A:----0-----I---0---I-------I-------I---------I---4---I---6---I---7---I
    E:----X-----I---X---I-------I-------I---------I-------I---4---I---5---I
    
    
        MI      SI   FAmaj7/#11  REm    LAsus   LA#
    e:---0---I---2---I---0----I---1---I---0---I---1---I
    B:---0---I---4---I---0----I---3---I---3---I---3---I
    G:---1---I---4---I---2----I---2---I---2---I---3---I
    D:---2---I---4---I---3----I---0---I---2---I---3---I
    A:---2---I---2---I---3----I-------I---0---I---1---I
    E:---0---I-------I---1----I-------I-------I-------I
    
    
    
    Intro:
    
  • e|--------------------------------------| |--2---3---2---3---2---3---2----0--|
    B|-----0--------0---------0--------2----| |--3---3---3---3---3---3---3----3--|
    G|*---2--2---2--2--------2--2---2--2---*| |--2---2---2---2---2---2---2----2--|
    D|*--3----3-2---2-------3----3-2---2---*| |--0---0---0---0---0---0---0----0--|
    A|--0------0----0------0------0----0----| |----------------------------------|
    E|--------------------------------------| |----------------------------------|
    
    [Coro]
    C#m  A   E   G#   x2
    C#m  A   E   B    x2
    
    [Puente]
    e|---------4-------|---------5-------|----------4-------|---------0---------|
    B|-------5---5-----|-----------5-----|--------5---5-----|-------0---0-------|
    G|-----6-------6---|-------6-----6---|------6-------6---|-----2-------2-----|
    D|---6-----------6-|-----7---------7-|----6-----------6-|---3-----------3--|
    A|-4---------------|---7-------------|--4---------------|-------------------|
    E|-----------------|-5---------------|------------------|-1-----------------|
    
    [DistorsióN]
    
  • Dsus4
    e--3-------------------------
    B--3-------------------------
    G--2-------------------------
    D---------------------------
    A---------------------------
    E---------------------------
    
    Este es el arpegio que se toca al comenzar la cancion y en toda la estrofa
    (Arpegio en A)
    e---------------------------------
    B----0--------2------0---------0--
    G---2-2----2--2-----2-2----2---2--
    D--3---3--3---2----3---3--3----2--
    A-0------0----0---0------0-----0--
    E---------------------------------
    
    
    (Arpegio en A)
    PERDI MIS MANOS POR QUERER TOCARTE SIEMPRE
    
  • *** Gente del atame:
         Esta version es 
          99% correcta   ***
    
    
    Ésta canción había sido trascrita anteriormente pero ninguna 
    de las versiones es tan correcta como ésta. Voy a transcribir
    los trozos de la canción (intro, coro, verso, etc.) y después,
    escribiré el orden en que se deben tocar y la letra con los 
    acordes, para que se guíen con ello.
    
    La verdad me da flojera detallar los acordes que se tocan, ya
    que no siempre se toca todo el acorde, es decir, se rasguea 
    solo una parte, pero para no tener problemas, escuchen la 
    canción. Fíjense bien el los tiempos, no los escribí por flojo,
    pero no son muy difíciles.
    
    --------------------------------
    Afinación:  Eb G# C# F# Bb Eb
    Baja medio tono tus cuerdas.
    
  • El bajo entra en el segundo o lo viví, o lo soñé
    
           B C#            G# A
    G I----4h6---4h6—4h6---------
    D I--------------------6--7--
    A I--------------------------
    E I--------------------------
    
    porqué cada vez que te alejas...
    
         C         G  G#        D#  A#
    G I------------------------------------------
    D I------------------------------------------
    A I--3-3--3-3---------------6-6---6---------- x2
    E I------------3--4-4--4-4------6---3-3-3--3-
    
    
    no, ya no hay más, ya no hay más....
    
            A#
    G I----------------------------------
    D I----------------------------------
    A I--3--1-3---------6-6--6-----------  x2
    E I----------4-3-4-----6----6-6-6-6--
    
    en otro lugar...
    
                G G#   C  A#
    G I-----------------------------
    D I---------5-6--6/10-8---------
    A I---3-----------------11---3--
    E I------4----------------------
           F#
    G I-----------------------------
    D I-----------------------------
    A I------1----------------------
    E I----2---3-4----4----4----4---
    
    o lo viví, 
  • +
    ¡Colabora con nosotros!
    Envíanos tu versión de esta canción
  • Tutorial
    HD
    Cómo tocar La Balada - La Cuca
    Como tocar #25
    Como tocar La balada de la Cuca
    10:12

Letra de La Balada
Fig.1 Fig.1 Fig.1
Perdí mis manos por querer tocarte siempre
Fig.1
perdí mis brazos por creer que siempre estarias aquí
Cs-Cs1 Cs-Cs1 Cs-Cs Cs Cdis pausa
O lo viví, o lo soñe, o lo viví, o lo viví.
Lírica Fig.1/Fig.1
Fig.1 Fig.1
Perdí mis piernas por andar sobre tus pasos
Fig.1 Fig.1
Y ahí en fracaso me quedé, y nunca más me iré
Cs-Cs1 Cs-Cs1 Cs-Cs1 Cs-Cdis pausa -c
O lo viví, o lo soñe, o lo vivi, o lo viví.
Gs
Porque cada vez que te alejas
me dejas desangrar
Gs
Porque cada vez que te largas
me arrancas, me descarnas
No ya no hay más..... Ya no hay más
Ds As
Ya cortaste mis brazos mis piernas
Y ya no doy más.....Ya no hay más;
Ds As
Ya mi carne se encuentra contigo
en otro lugar.
Liricas Fig.1/Fig.1
Fig.1 Fig.1
Perdí la forma de poder acariciarte
Fig.1 Fig.1
Sólo la boca me quedo para llamarte
Cs-Cs1 Cs-Cs1 Cs-Cs1 Cs-Cdis pausa -c
O lo viví o lo soñe, o lo viví, o lo viví.
Líricas Fig.2/Fig.2/Fig.2/Fig.2
cs1 cs cs2 cs/cs1 cs cs2 cs
Gs Gs1 Gs
Fig.2/Fig.2/Fig.2/Fig.2
cs1 cs cs2 cs/cs1 cs cs2 cs
Gs Gs1 Gs
Sálvame.... No me dejes sangrar
Ya no queda más
Gs (bajo en C) c
No me dejes sangrar, sangrar, sangrar.
Gs
Porque cada vez que te alejas
me dejas desangrar
Gs
Porque cada vez que te largas
me arrancas, me descarnas
No ya no hay más..... Ya no hay más
Ds As
Ya cortaste mis brazos mis piernas
Y ya no doy más.....Ya no hay más;
Ds As
Ya mi carne se encuentra contigo
c [arpegio] Gs Ds As c
en otro lugar.
El final tal vez sea lo más importante, en c tocas todas las cuerdas de abajo a arriba.
Tal vez sea esta canción lo que cambió mi vida y me devolvió a Fabiola.
Comentarios y sugerencias viccruz76@hotmail.com




[La Balada chords][La Balada cifra]
© LaCuerda.net · aviso legal · privacidad · es · en · pt · contacto
DINAMICO