Acordes de Guitarra » C »la Cuca » El Son del Dolor (Tab)

El Son del Dolor
la Cuca

Letras, Acordes y Tabs para Guitarra, Bajo y Ukulele

  • intro= F#       C#
    
     F#             C#
    Tu sabes que yo me muero
     F#             C#
    por ti mi vida yo me muero
     F#             C#
    por ti mi amor
     F#             C#
    que necesito respiracion de boca a boca
     F#             C#
    por que en tu boca nacio mi dolor
     F#             C#              F#             C#
    Yo quiero que me mates con un beso y otro beso para resucitar
     F#             C#              F#             C#
    to quiero que me des otro abrazo y en tus brazos yo quiero reventar
     F#                                            C#
    ay que me muero por ti mi vida yo me muero por ti mi amor
     F#             C#           F#             C#
    ay que me matas y me exitas con tanto dolor
    
  • Que onda bueno esta es mi primer tablatura que pongo espero les
    guste y le saquen provecho, bueno aquí les va el solo de al son
    del dolor de “La cuca”, aprovecho para mandar un saludo a mi
    banda, el Gabino, a Oscar, a Jus, al sera
    
    Esta muy fácil así que lo van a poder sacar muy rápido y si
    quieren le pueden hacer algunos adornos extras.
    
    1|--------------------------------------------------------------
    2|--------------------------------------------------------------
    3|--------------------------------------------------------------
    4|--------------------------------------------------------------
    5|----16----14--13-13-----18--16--14—13-------16----14--13-13---
    6|--------------------------------------------------------------
    
    1|--------------------------------------------------------------
    2|--------------------------------------------------------------
    3|--------------------------------------------------------------
    4|--------------------------------------------------------------
    5
  •     G                             D
    ||--7-x-x-7---7-(7)-7-7-7-7-x-x-|-5-x-x-5---5-(5)-5-5-5-5-x-x--|| x 2
    ||o-8-x-x-8---8-(8)-8-8-8-8-x-x-|-7-x-x-7---7-(7)-7-7-7-7-x-x-o||
    ||--7-x-x-7---7-(7)-7-7-7-7-x-x-|-7-x-x-7---7-(7)-7-7-7-7-x-x--||
    ||------------------------------|------------------------------||
    ||o-----------------------------|-----------------------------o||
    ||------------------------------|------------------------------||
    
    el primer riff se toca x 4
    
    ||--x-x-7-x-x-11-x-x-1-x-x-3-5-3-0--|| x 4 este va despues del intro
    ||--x-x-8-x-x-12-x-x-3-x-x-5-5-5-5--||
    ||--x-x-7-x-x-11-x-x-1-x-x-5-5-5-5--||
    ||----------------------------------||
    ||----------------------------------||
    ||----------------------------------||
    
    inmediatamente
    
    ||--7-7-7-x-8--x-5-x-7-5--|| x 8 en especial creo que este riff
    
  • Interprete: CUCA
    Canción:"El son del dolor"
    Album:La invasión de lo blátidos
    
    H-hammer-on
    /-slide
    P-pull-off
    ^-half bend
    ^^-full bend
    ~vibrato
    
    
    
    1er.RIFF
    e|---6------------|---4----------|
    B|---7------------|---6----------|
    G|---6------------|---6----------|
    D|----------------|--------------|
    A|----------------|--------------|
    E|----------------|--------------|
    
    
    2do RIFF
    oohh¡
    
    e|--------6--6---11-11---1--|--4-4---5-4------|
    B|--------7--7---12-12---3--|--6-6------------|
    G|---6-6---------11-11---1--|--6-6---------6--|
    D|--------------------------|-----------------|
    A|--------------------------|-----------------|
    E|--------------------------|-----------------|
    
    (El riff no.2 se toca 4 veces)
    En esta parte entra la voz
    
    3er RIFF
    
    e|---6--7-7---9---6--4---|
    B|---7--7-7---9---6--6---|
    G|---6--6-6-------6--6---|
    D|-----------------------|
    A|-----------------------|
    E|-----------------------|
    
    4to RIFF
    Este riff es un pequeño requinto que va despues de el primer riff
    e|--------------
  •    G   D
    e]-7---5-]
    b]-8---7-]
    g]-7---7-]
    D]-------]
    A]-------]
    E]-------]
    
    
    
    antes del verso..
    
        G              D
    
    e]-7-7-7-x-x-8-x-x-5-x-x-5--7-5---]
    b]-8-8-8-x-x-8-x-x-7-x-x-7-----7~~]
    g]-7-7-7-x-x-7-x-x-7-x-x-7--------]
    D]--------------------------------]
    A]--------------------------------]
    E]--------------------------------]..x2
    
  • Aunque muchos juran que tienen la mejor version a mi la verdad ninguna
    me gusto para adaptarla a grupo.
    
    Espero mi transcripción les agrade pues si han visto mis otras aportaciones
    sabran que hay buena calidad. Mas no digo que sea la mejor.
    
    Saludos a todos los colegas !
    A mis fans las adoro a todas!
    
    Importante que esta cancion esta grabada con 2 guitarras
    1 de ellas se puede quedar haciendo solo de la figua "1" donde
    ustedes puedan indentificar la mezcla de ambas guitarras a excepción del
     solo.
    
    
    figura 1 ( Intro a )
    
    ||---------------------|-----------------|| x 2
    ||--7--7--7--7--7------|-----------------||
    ||--6--6--6--6--6------|--6--6--6--6--6--||
    ||--4--4--4--4--4------|--6--6--6--6--6--||
    ||---------------------|--4--4--4--4--4--||
    ||---------------------|-----------------||
    
    esta figura "2" deben de ligar la ultima nota rapido
    con la primera para que les de buena armonia.
    
    figura 2 ( Intro b )
                                  H  H
    ||-------6-----9----6----4--6--4----|| x 4
    ||-
  • He visto muchos tabs que se parecen,  pero no suenan
    como deberia en la cancion. asi que ahí les va.
    
    Toda la cancion es igual:
    
    G---------------------------------------
    D---------------------------------------
    A---------------------5-5-5-5-5-5-5-5---
    E---3-3-3-3-3-3-3-3-3-------------------
    B---------------------------------------
    
        A veces mete arreglillos como fills, tales como:
    G---------------------------------------
    D---------------------------------------
    A-------------------3--5-5-5-5-5-5-5----
    E---3-3-3-3-3-3-3-3------------------5--
    B---------------------------------------
        O como este:
    G---------------------------------------
    D---------------------------------------
    A---------------------5-5-5-5-5-5-5-3---
    E---3-3-3-3-3-3-3-3-5-------------------
    B---------------------------------------
    El rematillo ese de los finales de riFFs son:
    
    G---------------------
    D--5--4-2-------------
    A---------5-4-2--5----
    E---------------------
    B---------------
  • +
    ¡Colabora con nosotros!
    Envíanos tu versión de esta canción
  • Tutorial
    HD
    Como tocar EL SON DEL DOLOR en guitarra - Cuca [Tutorial Somos Posers]
    9:16

Letra de El Son del Dolor
Tu sabes que yo me muero
por ti mi vida yo me muero
por ti mi amor
que necesito respiracion de boca a boca
por que en tu boca nacio mi dolor
Yo quiero que me mates con un beso y otro beso para resucitar
to quiero que me des otro abrazo y en tus brazos yo quiero reventar
ay que me muero por ti mi vida yo me muero por ti mi amor
ay que me matas y me exitas con tanto dolor
Tu sabes que me apasiona
tu persona y esa zona
que te quiero morder
tu sabes que me vulves loco
con tus gritos y tus arañazos mujer
Y cuando fumas y quemas
y dibujas patrones sobre mi
y la manera que amas entre llamas
y me consumo pero ya li vivì
que mas da
Ay...
Hiereme mas que me hace tu maldad feliz
Ax 4
Ex x
Alguna Queja sugerencia envienmela a mi correo que esta en la parte superir




[El Son del Dolor chords][El Son del Dolor cifra]
© LaCuerda.net · aviso legal · privacidad · es · en · pt · contacto