Acordes de Guitarra » C »Los Cuates de Sinaloa » El Cuervo (Tab)

El Cuervo
Los Cuates de Sinaloa

Letras, Acordes y Tabs para Guitarra, Bajo y Ukulele

  •         F#                 C#7               B
    e |-----2-------------------0----------------2------------------|
    B |-----2-------------------2----------------4------------------|
    G |-----3-------------------4----------------4------------------|
    D |-----4-------------------3----------------4------------------|
    A |-----4bajo menor---------4Bajo mayor------2Bajo mayor--------|
    E |-----2Bajo mayor---------4bajo menor------2bajo menor--------|
    
    
    intro:
    
    e |------------6--6--6-6----------------------------------------|
    B |-2-2--4--6--7--7--7-7---6--4--2--2-2---2------2------2-------|
    G |------------6--6--6-6----------------4---4--3---3--0---0--4--|
    D |-------------------------------------------------------------|
    A |-------------------------------------------------------------|
    E |-------------------------------------------------------------|
    
    
    e |-6--6--6-6----------------------------------------|
    
  • +
    ¡Colabora con nosotros!
    Envíanos tu versión de esta canción

Letra de El Cuervo
El cuervo en una ladera
lloraba su soledad aya ya ya yay
porque la cuerva no quizo
darle de amor caridad
la cuerva le dice al cuervo
ya no quiero tu amistad aya ya ya yay
porque tu eres muy prieto
y hasta vergüenza me da
el cuervo le contestó
somos del mismo color aya ya ya yay
si no me quieres por prieto
pues buscate un español
al hombre que tenga una no le consedo el honor aya ya ya yay
hay que pasearse con todas no hay otra cosa mejor
no confies en las mujeres
ni les tengas compasion aya ya ya yay
cuando menos lo imaginas te juegan una traicion
el cuervo viene volando cansado de navegar aya ya ya yay
buscando un arbol frondoso para poder descansar
ahí me avisas.....




[El Cuervo chords][El Cuervo cifra]
© LaCuerda.net · aviso legal · privacidad · es · en · pt · contacto
DINAMICO