Tablatura para Guitarra de El Cuarteto de Nos: No Llora
Conexión · Inscripción
Letras y Acordes
Pantalla Completa
Imprimir
Versión Texto
Añadir Favorito
Otras Versiones

Mostrar Diagramas
Desfile Automático
Manipular Acordes
Formato del Texto


No Llora(TAB)

El Cuarteto de Nos

calidad:
cdno1044
AUTOR: Roberto Musso
ALBUM: Habla tu Espejo (2014)
Enviado por Mal
Aquí les dejo el solo de este tema. Mi primera tablatura. Suerte!

E----------------------------------------------------------------------------
A----------------------------------------------------------------------------
D----------------------------------------------------------------------------
G-------------------------12-14--14-14-14-14-14-14---14-12-14-14r16b14r15b14-
B-------------------12-12----------------------------------------------------
E---12~-12-12-15-15----------------------------------------------------------

E----------------------------------------------------------------------------
A----------------------------------------------------------------------------
D---------------------------------------14b16-14b16-14b16--12----12----12-14-
G----14-12-14-14r16b14r15b14-12-12----------------------------14----14-------
B----------------------------------------------------------------------------
E----------------------------------------------------------------------------

E----------------------------------------------------------------------------
A----------------------------------12-----12-12----12-12----12-12-----12-----
D----14b16r14b15r14-12-14~---------12-----12-12----12-12----12-12-----12-----
G-------------------------------------14--------14-------14-------14---------
B----------------------------------------------------------------------------
E----------------------------------------------------------------------------

E----------------------------------------------------------------------------
A---------------------15b16-15b16-15b16-15b16--------------------------------
D----14b16----14b16---14b15-14b15-14b15-14b15--12--14r15-12-14~--------------
G----------12----------------------------------------------------------------
B----------------------------------------------------------------------------
E----------------------------------------------------------------------------
Este fichero es trabajo propio de su transcriptor y representa su interpretación personal de la canción. El material contenido en esta página es
para exclusivo uso privado, por lo que se prohibe su reproducción o retransmisión, así como su uso para fines comerciales.

© LaCuerda.net · Aviso Legal · Privacidad