Tablatura para Bajo de El Cuarteto de Nos: No Llora
Conexión · Inscripción
Letras y Acordes
Pantalla Completa
Imprimir
Versión Texto
Añadir Favorito
Otras Versiones

Mostrar Diagramas
Desfile Automático
Formato del Texto


No Llora(BAJ)

El Cuarteto de Nos

calidad:
cdno1043
AUTOR: Roberto Musso
ALBUM: Habla tu Espejo (2014)
Enviado por Gonzalo
INTRO

G-----------------------------------
D-----------------------------------
A---------3--3-3-3----------5--5-5-5
E-0--000------------3--333----------

Cuando la...
G-----------------------------------
D-----------------------------------
A---------3--3-3-3----------5--5-5-5 X3
E-0--000------------3--333----------

No se si...
G-----------------------------------
D-----------------------------------
A3--3333-------3--3333--------------
E-------0--------------0-------77777

Estribillo

G-----------------------------------
D-----------------------------------
A---------3-----------------5-------   X2
E-0-----------------3---------------

Cuando se...
G-----------------------------------
D-----------------------------------
A---------3--3-3-3----------5--5-5-5 X3
E-0--000------------3--333----------

No se si...
G-----------------------------------
D-----------------------------------
A3--3333-------3--3333--------------
E-------0---------------0------77777

Estribillo

G-----------------------------------
D-----------------------------------
A---------3-----------------5-------   X2
E-0-----------------3---------------

solo de guitarra

G-----------------------------------
D-----------------------------------
A---------3-----------------5-------   X2
E-0-----------------3---------------

Silencio

G-----------------------------------
D-----------------------------------
A-----------------------------------  silencio hasta el estribillo
E-----------------------------------

Estribillo

G-----------------------------------
D-----------------------------------
A---------3-----------------5-------   X2
E-0-----------------3---------------

final
G-----------------------------------------
D-----------------------------------------
A-3--3-3-3--7--7-7-7--5--5-5-5--0--0-0-0--
E-----------------------------------------
Este fichero es trabajo propio de su transcriptor y representa su interpretación personal de la canción. El material contenido en esta página es
para exclusivo uso privado, por lo que se prohibe su reproducción o retransmisión, así como su uso para fines comerciales.

© LaCuerda.net · Aviso Legal · Privacidad