Tablatura para Bajo de El Cuarteto de Nos: Mírenme
Conexión · Inscripción
Letras y Acordes
Pantalla Completa
Imprimir
Versión Texto
Añadir Favorito
Otras Versiones

Mostrar Diagramas
Desfile Automático
Formato del Texto


Mírenme(BAJ)

El Cuarteto de Nos

calidad:
cdno0732
AUTOR: El Cuarteto de nos
ALBUM: Bipolar (2009)
Enviado por Daniel
ESTRIBILLO
G-------------
D-------------
A-0-3-5-------
E---------00--

RIFF
G--------------------54----------9h10p9-------------
D----------------------5---------------10-----------
A-0-3-5------0-3-5-------0-3-5------------0-3-5-----
E---------00------------------------------------00--

ESTRIBILLO

RIFF

ESTRIBILLO


SOS EL BECADO...
G--------------------
D--------------------
A--------------------
E-8---/10---1---/3--

RIFF

ESTRIBILLO
Este fichero es trabajo propio de su transcriptor y representa su interpretación personal de la canción. El material contenido en esta página es
para exclusivo uso privado, por lo que se prohibe su reproducción o retransmisión, así como su uso para fines comerciales.

© LaCuerda.net · Aviso Legal · Privacidad