Acordes de Guitarra » C »Crucis » La triste visión del entierro propio (Tab)

La triste visión del entierro propio
Crucis

Letras, Acordes y Tabs para Guitarra, Bajo y Ukulele

  • Bm             Dm              A
    Aquí esta mi cuerpo muerto al fin
    Bm                F#         F         F#
    Que es lo que su mente se enrredaba en mí?
    Bm           Dm            A
    Todos concurrieron sin hablar
    Bm        F#       F         F#
    Y la ceremonia trascurría igual
    Bm       Bm/A          G            D
    Yo los miraba desde mi ángulo más cómodo,
    Bm      Bm/A        F#
    Pero el ángel quiso ser.-
    
    
    No quedaba nadie sin llorar
    El cordón de plata terminaba triunfal
    Cuantos somos ya los héroes obligados
    Toda vieja historia de Caín y Abel,
    Yo los miraba desde mi ángulo más cómodo,
    Pero el ángel quiso ser.-
    
  • Los guiones marcan el comienzo de cada compas.
    
    0:15
       -         -          -         -             -           -
    G|-----------------7------------------7---7---------7-------------------
    D|-7--------------------7------------7------7-6-5-------3-4-5---5---5-6-
    A|-------7-6-5-------5--------7-6-5-----5-------------5-----------5-----
    E|----------------------------------------------------------------------
    
       -           -                        -                  -
    G|----------------7-10-9-7-5------------------------------------7-------
    D|-7-----7-------7----------7-6-5-----------------5-5-7-------7---7p5-7-
    A|-----7---7-6-5-----------------7-6-5-------5-6-7-7---7-6-5------------
    E|------------------------------------7-5-7-8---------------------------
    
       -           -
    G|-----7--------------------------
    D|-5-------3-4-5--5--5--5--5--6--6
    A|-------5------------------------
    E|--------------------------------
    
    0:45                              (2 veces)
      -           -             -       
  • +
    ¡Colabora con nosotros!
    Envíanos tu versión de esta canción

Letra de La triste visión del entierro propio
Aquí esta mi cuerpo muerto al fin
Que es lo que su mente se enrredaba en mí?
Todos concurrieron sin hablar
Y la ceremonia trascurría igual
Yo los miraba desde mi ángulo más cómodo,
Pero el ángel quiso ser.-
No quedaba nadie sin llorar
El cordón de plata terminaba triunfal
Cuantos somos ya los héroes obligados
Toda vieja historia de Caín y Abel,
Yo los miraba desde mi ángulo más cómodo,
Pero el ángel quiso ser.-




[La triste visión del entierro propio chords][La triste visión del entierro propio cifra]
© LaCuerda.net · aviso legal · privacidad · es · en · pt · contacto