Acordes de Guitarra » C »Crucis » Corto Amanecer (Tab)

Corto Amanecer
Crucis

Letras, Acordes y Tabs para Guitarra, Bajo y Ukulele

  •             (2 veces)
    G|----------------------5-7-|-------------------------7-9-|
    D|--------15------5-7-8-----|------------------6-7-8-9----|
    A|-8--8--/----6-8-----------|-5---3---2-2-2-2-7-----------|
    E|--------------------------|----------2-2-2-2------------|
    
                (2 veces)
    G|----------------------5-7-|-------------------------7-9-|
    D|--------15------5-7-8-----|------------------6-7-8-9----|
    A|-8--8--/----6-8-----------|-5---3---2-2-2-2-7-----------|
    E|--------------------------|----------2-2-2-2------------|
    
                (2 veces)
    G|----------------------5-7-|-------------------------------------
    D|--------15------5-7-8-----|-------------------------------------
    A|-8--8--/----6-8-----------|-5---3---2-2-2-2-6----6----6----6----
    E|--------------------------|----------2-2-2-2-----------------6--
    
    “Algo estaba ocurriendo…                               …alrededor…
    G|-----8------7---------------------------------------------------------
    D|-------------------------------------
  • +
    ¡Colabora con nosotros!
    Envíanos tu versión de esta canción






[Corto Amanecer chords][Corto Amanecer cifra]
© LaCuerda.net · aviso legal · privacidad · es · en · pt · contacto