Acordes de Guitarra » C »Crucis » Ironico Ser (Tab)

Ironico Ser
Crucis

Letras, Acordes y Tabs para Guitarra, Bajo y Ukulele

  •               (4 veces)
    G|------------------------------------|
    D|-----------6|7-8---8---9h10p9-------|
    A|-7--7--7--7------------------9h10p9-|
    E|------------------------------------|
    
    G|--------------------------------------------------------------
    D|-----------------14--14-14-14-14-14-14-14-14-14-14-14-14-14-14
    A|-7------------------------------------------------------------
    E|--------------------------------------------------------------
    
             (5 veces)                                                    \
    “Muerte te haces…          …estos…                                    |
    G|------------------------|---------------------------------          |
    D|------------------9-----|---------------------------------          |
    A|-7---7-7---7--10-----10-|-7---7-7--7-7-7-7-9-9-10-10-12-12          |
    E|------------------------|---------------------------------          |
                                                                          | Parte
           (2 veces)                        
  • +
    ¡Colabora con nosotros!
    Envíanos tu versión de esta canción






[Ironico Ser chords][Ironico Ser cifra]
© LaCuerda.net · aviso legal · privacidad · es · en · pt · contacto