Tablatura para Guitarra de Coalo Zamorano: Canto de tu amor
Conexión · Inscripción
Letras y Acordes
Pantalla Completa
Imprimir
Versión Texto
Añadir Favorito
Otras Versiones

Mostrar Diagramas
Desfile Automático
Manipular Acordes
Formato del Texto


Canto de tu amor(TAB)

Coalo Zamorano

calidad:
czam0114
AUTOR: Eric Rodriguez
ALBUM: Eres mi Pasión (2006)
Enviado por josue
las partituras de markiki
bueno aqui yo les doy la intro de coalo zamorano que es canto de tu amor
ojo no esta completa le faltan muchos areiglos que se escuchan a lo lejos


|-----------------------------|-----------------------------------|
|--15---10/12--12----10--8--5-|---------5-------1-----3----5----7-|
|--14---9/11---11----9---7--4-|----4----------0-----0----0----5---|
|--12---7/9----9-----7---5--2-|-------2-----2-----2----2----0-----|
|-----------------------------|-----------------------------------|
|-----------------------------|--0--------------------------------|
ojo aqui es como un do pero con bajo de sol seria asi
|-----------------------------|-----------------------------------|
|------8-----10---15-12-13-10-|-12-8-7-8----5-----5-5----3-----5-3|
|----7-----9------14-11-12-9--|-11-7-6-7------5------------4------|
|--0-----0--------12-9--10-7--|-9--5-4-5--------5------------5----|
|-----------------------------|-----------------------------------|
|-----------------------------|-----------3------------3----------|
OJO la A es de armonicos aqui no presionas la cuerda sino que solo pones
los dedos ensima de las cuardas de traste numero numero 7 sin presionar
(sino entiendo busquen)
|------------3-5-7----10-5----|-----------------------------------|
|------1-----------7----------|-------7A--------------------------|
|----0-----------7------------|---------7A------------------------|
|--2--------------------------|----7A-----------------------------|
|--------3--------------------|-----------------------------------|
|-----------------------------|-----------------------------------|
es por tu amor
|---------------------2-------|---------2------------2-----0h2-----|
|-----------------2-----2-----|-----2-----2-----2------2--------3--|
|-------------------0-----0---|-------0-----0-----0------0-------0-|
|-----------------------------|----------------------------0-------|
|-----------------------------|---2-----------3--------------------|
|---------------3-------------|-----------------------------------3|

|--------2------------0-------|----------------------------2-------|
|----2-----2------0-----0-----|-----1---1--------3-----2-----2-----|
|------0-----0------0-----0---|----0-----0------0-0------0-----0---|
|-----------------------------|---2-------2----4-------------------|
|-----------------------------|--3----3----3-----------------------|
|--3----------1---------------|----------------------3-------------|

|--------2--------------------|--------0---------0-----------------|
|----2-----2------3--0-1-3-0--|------0--0------0--0--------1--5--7-|
|------0-----0---0------------|-------5--5------5--5------0--0--5--|
|---------------2-------------|-----5---------5----------2--2--0---|
|--2-----------3--------------|------------------------------------|
|-----------------------------|---3---------3----------------------|
ojo la f es de hamer off y lo puse asi porque no me acuerdo como se pone
|----------------------3------|--------------2---0-----------------|
|----8--10--------------0-----|---1f0---3---5-3---------5-8-3------|
|---7--9-----------0----------|------0---0-----------4/5-----------|
|--0--0-------------0---------|------------------2-----------------|
|-----------------------------|--------------------2---------------|
|----------------3------------|------------------------------------|

|-------------0h2-------------|-----------------------------------|
|--1-3-5-0--------3-----------|-----------------------------------|
|------------------0----------|-----------------------------------|
|-------------0---------------|-----------------------------------|
|--3-3-3-5--------------------|-----------------------------------|
|-------------------3---------|-----------------------------------|
segunda ves
|-----------------------------|--------------2---0----------------|
|-----------------------------|---1f0---3---5-3---------5-3-8-----|
|-----------------------------|------0---0---------4-4/5------7---|
|-----------------------------|------------------2----------------|
|-----------------------------|-----------------------------------|
|-----------------------------|-----------------------------------|

|-------------0h2-------------|-----------------------------------|
|--1-3-5-0--------3-----------|-----------------------------------|
|------------------0----------|-----------------------------------|
|-------------0---------------|-----------------------------------|
|--3-3-3-5--------------------|-----------------------------------|
|-------------------3---------|-----------------------------------|

algun erro escribanme mie correos es
estarcraft2@hotmail.com porfa avisenme para
correjir los errores
Este fichero es trabajo propio de su transcriptor y representa su interpretación personal de la canción. El material contenido en esta página es
para exclusivo uso privado, por lo que se prohibe su reproducción o retransmisión, así como su uso para fines comerciales.

© LaCuerda.net · Aviso Legal · Privacidad