Tablatura para Guitarra de Coalo Zamorano: Canto de tu amor
Conexión · Inscripción
Letras y Acordes
Pantalla Completa
Imprimir
Versión Texto
Añadir Favorito
Otras Versiones

Mostrar Diagramas
Desfile Automático
Manipular Acordes
Formato del Texto


Canto de tu amor(TAB)

Coalo Zamorano

calidad:
czam0112
AUTOR: Eric Rodriguez
ALBUM: Eres mi Pasión (2006)
Enviado por enoc, basado en daniel
bueno esta es una d mis primeras canciones en la cuerda.net
esta algo original a la grabacion pero si tienen alguna duda
escribanme me llamo enoc ampueda y un saludo a la igelsia manan-
tial de vida un saludo a victor el director d alabanza hay les va


E|----------------------------------------------------------
B|-----------------------------------------------------------
G|-----------------------------------------------------------
D|--------------------------0--------------------------------
A|--8---3s--5---3--1--1---1------3--1--3---8---3s--5--3--1--
E|-10---5s--7---5--3--0-------0--2--3--5---10--5s--7--5--3---



E ------------------------------------------------------------
B ------------------------------------------------------------
G ------------------------------------------------------------
D ------------------------------------------------------------
A --1--5--7--4--11--------------------------------------------------
E --0--5--7--4--12--------------------------------------------------


C/D D G G/B C Es por tu amor que hoy tengo tu perdón.
C/E D/F# G G/F C/E Es por tu amor que puedo descansar en Ti.
C/D D G G/B C G/B Por tu poder que todo se estremece,
Am C/G C/D puedo ver tu mano en mí.
C/E-D/F# G D/F# E/G# Can-to de tu amor, canto de tu poder,
Am G/B Am-G/B C C/D-D Canto de tu grandeza. Canto de tu hermosura,
C/E-D/F# G D/F# E/G# Can-to de tu amor, canto de tu poder.
Am G/B Am-G/B C C/D-D G No hay algo tan grande que llene mi vida, Jesús. espero que les guste es una de mis canciones favoritas ok dios les bendiga y si estan algunas notas mal digamelas ok....
Este fichero es trabajo propio de su transcriptor y representa su interpretación personal de la canción. El material contenido en esta página es
para exclusivo uso privado, por lo que se prohibe su reproducción o retransmisión, así como su uso para fines comerciales.

© LaCuerda.net · Aviso Legal · Privacidad