Acordes de Guitarra » C »Claroscuro » Chicle (Tab)

Chicle
Claroscuro

Letras, Acordes y Tabs para Guitarra, Bajo y Ukulele

  • Riff Principal:
    e|-x-x-x-x-x-x-x-x------------------------------
    B|-x-x-x-x-x-x-x-x------------------------------
    G|-x-x-x-x-x-x-x-x--7-7-7-5x--7-----------------
    D|-x-x-x-x-x-x-x-x--8-8-8-6x--8-----------------
    A|-x-x-x-x-x-x-x-x--8-8-8-6x--8-----------------
    E|-x-x-x-x-x-x-x-x--6-6-6-4x--6-----------------
    
    Puente:(x3)
    e|---x-x-x-x-x----------
    B|---x-x-x-x-x----------
    G|-8-x-x-x-x-x---------- 
    D|-9-x-x-x-x-x----------
    A|-9-x-x-x-x-x----------
    E|-7-x-x-x-x-x----------
    
    e|----------------------
    B|----------------------
    G|-8-x--9---------------
    D|-9-x--10--------------
    A|-9-x--10--------------
    E|-7-x--8---------------
    
    Riff Principal:
    e|-x-x-x-x-x-x-x-x------------------------------
    B|-x-x-x-x-x-x-x-x------------------------------
    G|-x-x-x-x-x-x-x-x--7-7-7-5x--7-----------------
    D|-x-x-x-x-x-x-x-x--8-8-8-6x--8-----------------
    A|-x-x-x-x-x-x-x-x--8-8-8-6x--8-----------------
    E|-x-x-x-x-x-x-x-x--6-6-6-4x--6-----------------
    
    e|------------------------------
  • +
    ¡Colabora con nosotros!
    Envíanos tu versión de esta canción



Video de Chicle
[]




[Chicle chords][Chicle cifra]
© LaCuerda.net · aviso legal · privacidad · es · en · pt · contacto