Acordes de Guitarra » C »Claroscuro » Miel (Tab)

Miel
Claroscuro

Letras, Acordes y Tabs para Guitarra, Bajo y Ukulele

  • Afinación: Eb-Ab-Db-Gb-Bb-Eb
    
    Intro: 
    
    Guitarra 1: Eléctrica
    e|-------------------------------------------
    B|-------------------------------------------
    G|------------------------------------------- 
    D|-2------2-------2--------------------------
    A|---0h2-----0h2----0h2----------------------
    E|-------------------------------------------
    
    Guitarra 2: Clásica
    e|-----10----------10-------------------------
    B|-----10----------10-------------------------
    G|-----10--10------10--10--------------------- 
    D|-12----------12-----------------------------
    A|--------------------------------------------
    E|--------------------------------------------
    
    Verso:
    Guitarra 1: Eléctrica
    e|-------------------------------------------
    B|-------------------------------------------
    G|------------------------------------------- 
    D|-2-----0----2------0---2-----0-------------
    A|---0h2---------0h2-------0h2---------------
    E|-------------------------------------------
    
    Guitarra 2: Clás
  • +
    ¡Colabora con nosotros!
    Envíanos tu versión de esta canción



Video de Miel
[]




[Miel chords][Miel cifra]
© LaCuerda.net · aviso legal · privacidad · es · en · pt · contacto