Acordes de Guitarra » C »Ciné y Televisión » La música de Batman (Tab)

La música de Batman
Ciné y Televisión

Letras, Acordes y Tabs para Guitarra, Bajo y Ukulele

  • Batman 
    La canción de Batman
    
    
    
    G------------------------------------------------------------------------------------ 
    D------------------------------------------------------------------------------------ 
    A--------------------------------5-5-4-4-3-3-4-4-5-5-4-4-3-3-4-4---------------------
    E-5-5-4-4-3-3-4-4-5-5-4-4-3-3-4-4----------------------------------------------------
    
    A..... 
    G------------------------------------------------------------------------------------ 
    D------------------------------------------------------------------------------------ 
    A---------------------------------7-7-6-6-5-5-6-6-5-5-4-4-3-3-4-4-------------------- 
    E-5-5-4-4-3-3-4-4-5-5-4-4-3-3-4-4---------------------------------5-5-4-4-3-3-4-4/12-
  • +
    ¡Colabora con nosotros!
    Envíanos tu versión de esta canción






[La música de Batman chords][La música de Batman cifra]
© LaCuerda.net · aviso legal · privacidad · es · en · pt · contacto
DINAMICO