Acordes de Guitarra » C »Ciné y Televisión » Samurai x opening (Tab)

Samurai x opening
Ciné y Televisión

Letras, Acordes y Tabs para Guitarra, Bajo y Ukulele

  • E|-0-0-4-5--2-2-2-2-4-4-5---2-2-2-2-4-5-5-8-7-7-5-1-0
    B|---------------------------------------------------
    G|---------------------------------------------------
    D|---------------------------------------------------
    A|---------------------------------------------------
    E|---------------------------------------------------
    
    E|-0-2-4-7-5-4-5----2-5-5-4-2-4-5-----4-4-0-0---0-2-2
    B|----------------3---------------------------2------
    G|---------------------------------------------------
    D|---------------------------------------------------
    A|---------------------------------------------------
    E|---------------------------------------------------
    
    E|-5-4-2----4-4-0-0---4-5-5----8-7-5-------2-5-4-0---
    B|------------------2--------------------3-----------
    G|---------------------------------------------------
    D|---------------------------------------------------
    A|---------------------------------------------------
    E|---------------------------------------------------
    
  • +
    ¡Colabora con nosotros!
    Envíanos tu versión de esta canción






[Samurai x opening chords][Samurai x opening cifra]
© LaCuerda.net · aviso legal · privacidad · es · en · pt · contacto
DINAMICO