Acordes de Guitarra » C »Cielo Razzo » De Caer (Tab)

De Caer
Cielo Razzo

Letras, Acordes y Tabs para Guitarra, Bajo y Ukulele

  • e|----------------------------|--------------------------|
    B|----------------------------|--------------------------|
    G|----------------------------|--------------------------|
    D|-3---3--3--3--3--3--3--3--3-|---3--3--3--3--3--3--3--3-|
    A|---1--1--0--0--3--3---------|-1--1--0--0--3--3---------|
    E|---------------------3--3---|-------------------3--3---|
    
     Dm   F   Bb            Dm  F   Bb         A
    e|--------------------------------------------|
    B|--------------------------------------------|
    G|--------------------------------------------|
    D|-3---3---3h5-6h5-3-----3---3---3h5-6h5-3----|
    A|---5---5-----------3h5---5---5------------0-|
    E|--------------------------------------------|
    
    Verso
    Dm
    Solo las grietas de la calle,
    Bb
    dibujan vida en la tarde
    
  • e-----------------
    b-----------------
    g-----------------
    D-----------------
    a--8---8---8---8-
    E----6---6---6---
    Mientras la otra hace...
    e-------------------------------------------
    b-------------------------------------------
    g-------------------------------------------
    d-------------------------------------------
    a-------------------------------------------
    E-6-6-6-6-6-5-5-5-5-5-8-8-8-8-8-3-3-3-3-3-3-
    
    Después sigue la base:
    Bb5 - A5 - C5 - G5
    
    Riff
    ----------------------------------------------------------------
    ----------------------------------------------------------------
    
  • D5
    Solo las grietas de la calle
    C5
    Dibujan vida en la tarde
    A5
    Y se aparecen recordando
    G5
    Las mil figuras que pasaron
    D5
    Ahi vas corriendo y sos impura
    C5
    Dejas la vida en otro lado
    A5
    Y te apareces recordando
    G5
    Las mil figuras que pasaron
    
    C                      D5
    Caera la noche y antes de caer...
    C             A         Base 1
    
  • +
    ¡Colabora con nosotros!
    Envíanos tu versión de esta canción

Letra de De Caer
Mientras la otra hace...
Después sigue la base:
Riff
Dibujan vida en la tarde
Y se aparecen recordando
Las mil figuras que pasaron
Ahi vas corriendo y sos impura
Dejas la vida en otro lado
Y te apareces recordando
Las mil figuras que pasaron
Caera la noche y antes de caer...
Caera la noche y antes de caer...
Es tan inerte este silencio
Que trae olores de otros años
Se fue callando el gato viejo
Fueron los ultimos tejados...
La tarde es alma de ventanas
"Las grietas nunca dan revancha"
Y en este duelo gana el tiempo
Y mi bostezo es un desgarro.
Caera la noche y antes de caer...
Caera la noche y antes de caer...
Riff
Y asi se termina una vaga sensacion
Ese rayo fue el disfraz del dia
Un nudo de alucinacion, la persiana y su rumor
Su silueta se esfumò.
Riff
Base: (Dm- Bb - Am) x 2
Caera la noche y antes de caer...
Caera la noche y antes de caer...
Riff
Y asi se termina una vaga sensacion
Ese rayo fue el disfraz del dia
Un nudo de alucinacion, la persiana y su rumor
Su silueta se esfumò.
Y asi termina, la ventana enmudecio
Ese mundo se perdio y ahora son trozos
Lugar de ruinas, dejo todo esto pero
siento que vuelvo a empezar.
Riff




[De Caer chords][De Caer cifra]
© LaCuerda.net · aviso legal · privacidad · es · en · pt · contacto
DINAMICO